Sound will begin in 5 seconds

Herencia

Chords
01234567891011121314151617181920212223
E
B
G
D
A
E
B
0 1 2 3 4 5 6 7 8 9 10 11 12 13 14 15 16 17 18 19 20 21 22 23
Song Science #1: How Pros Use 6 Chords to Write Hit Songs
(/) Slide Up  (\) Slide Down  (h) Hammer On  (p) Pull Off  (b) Bend (r) Release (v) Vibrato

Stave 1:

G|--------------------------------------------|--
D|--------------------------------------------|--
A|-----------1--1-----------1--1-----------1--|--
E|--0--3--0--------0--3--0--------0--3--0-----|--

Stave 2:

G|--------------------------|-----------------------------------------------------|-----------------------------------------------------|--
D|--------------------------|--------------------------------------0--3-----0--2--|--------------------------------------------------3--|--
A|--8--7-----7--6-----------|-----------------------------------3--------2--------|--------------------------------------------------3--|--
E|--------0--------0--7--6--|--0--0--0--0--0--0--0--0--0--2--5--------------------|--0--0--0--0--0--0--3--0--2--0--7--0--6--0--0--0--1--|--

Stave 3:

G|-----------|-----------------------------------------------------------------|--------------------------------|--
D|-----------|--------------------------------------------------0--3-----0--2--|--------------------------------|--
A|--------6--|-----------------------------------------------3--------2--------|--------------------------------|--
E|--0--0-----|--0--0--0--0--0--0--0--0--0--0--0--0--0--2--5--------------------|--0--0--0--0--0--0--0--3--2--1--|--

Stave 4:

G|-----------------------------------------------------|-----------------------------------------------------------
D|--------------------------------------0--3-----0--2--|-----------------------------------------------------5-----
A|-----------------------------------3--------2--------|-----------------------------------------------7--5--------
E|--0--0--0--0--0--0--0--0--0--2--5--------------------|--0--0--0--0--0--0--0--0--3--0--2--0--7--0--6-----------6--

Stave 5:

G|--------------------------------------------------------------------------------------|--
D|--------------------------------------------------------------2--3--2-----2-----------|--
A|--2-----------2--------------2-----------3--------------3--------------3-----3--2--0--|--
E|-----1--0--0-----1--0-----0-----1--0--0-----1--0-----0-----0--------------------------|--

Stave 6:

G|--------------------------------------------------------------------------
D|--------------------------------------------------------------------------
A|--4-----------4--------------4-----------5-----------5-----6-----------6--
E|-----3--0--0-----3--0-----0-----3--0--0-----3--0--0-----0-----5--0--0-----

Stave 7:

G|---------------------------------------------------------------------------------------------------2--2---------------9--8-------------
D|-----------9--9--------------9--9--7--10--9--------------7--7--------------5--5--4--5--4--------------------------10--------10--9------
A|---------------------------------------------9--------------------------------------------5--3--3--------------9-------------------10--
E|--0--0--0-----------0--0--0---------------------0--0--0-----------0--0--0-----------------------------------8--------------------------

Stave 8:

G|--------------------------------------
D|--------------------------7--7-----7--
A|--0--0--0--3--3-----------5--5-----5--
E|--------------------3--3--------3--3--

Stave 9:

G|-----------------------------------------------|-----------------------------------------------------------------------------------------|--
D|-----------------------------------------------|-----------------------------------------------------------------------------------------|--
A|-----2--------3-----------------1--------------|--------------------8--8-----------------7--7--------------6--6--2-----------------------|--
E|--0--------0--------0--3-----0-----0--3--2--1--|--0--0--0--0-----0-----------0--0--0--0--------0--0--0--0-----------0--2--3--6--5--3--0--|--

http://www.guitartabcreator.com
Guitar Tab Creator is intended to store guitar tab created through the tool. It currently does not support in-line text editing. Any text you place in here will be lost. If you need to comment on your tab, please use the "Tab Notes" section located below.