Sound will begin in 5 seconds

Away in a Manger

Chords
01234567891011121314151617181920212223
E
B
G
D
A
E
B
0 1 2 3 4 5 6 7 8 9 10 11 12 13 14 15 16 17 18 19 20 21 22 23
Learn to Play Guitar Online
(/) Slide Up  (\) Slide Down  (h) Hammer On  (p) Pull Off  (b) Bend (r) Release (v) Vibrato

Stave 1:

E|--5--5--3--2--2--5--3--3-----------
B|-----7--5--3--3--6--4--4--2--0-----
G|--------------------------2--0--2--
D|-----0-----------------0--------4--
A|--------------------------------5--
E|-----------------------3-----------

Stave 2:

E|-----------------0--------------2--
B|--------------------3--0-----3--3--
G|--2--2--4--2--2-----x--0--2--2--2--
D|-----2-----x--0-----x--0--2-----0--
A|-----0-----x--0--------------------
E|-----------------------------------

Stave 3:

E|--5--5--3--2--2--5--3--3-----------
B|--x--7--5--3--3--6--4--4--2--0-----
G|--------------------------2--0--2--
D|-----0-----------------0--------4--
A|--------------------------------5--
E|-----------------------3-----------

Stave 4:

E|-----3-----2--0--2--0-----0--------
B|-----2-----3-----3--2--2--0--2--3--
G|--2-----------2--------4--x--2--2--
D|-----------------0--------0--2--0--
A|-----0--2-----4--------------------
E|--------------------------3--3--2--

http://www.guitartabcreator.com
Guitar Tab Creator is intended to store guitar tab created through the tool. It currently does not support in-line text editing. Any text you place in here will be lost. If you need to comment on your tab, please use the "Tab Notes" section located below.