'We Wish You A Merry Christmas' (version 2)

01234567891011121314151617181920212223
E
B
G
D
A
E
B
0 1 2 3 4 5 6 7 8 9 10 11 12 13 14 15 16 17 18 19 20 21 22 23
(/) Slide Up  (\) Slide Down  (h) Hammer On  (p) Pull Off  (b) Bend (r) Release (v) Vibrato

Stave 1:

E|-----------------------------------------0-----------------------
B|-----1-----1--3--1--0-----------3-----3-----3--1--0--------------
G|--0--------------------2--2--2--------------------------0-----0--
D|-----------------------------------------------------------------
A|-----3-----------------------------------------------------------
E|-----------------------1--------2-----------------3--------------

Stave 2:

E|--0-----0--1--0-----------------------------------------
B|-----------------3--1--------------------3--0--1--------
G|--------------------------2-----0--0--2-----------------
D|--------------------------------------------------------
A|--------------------0--------------------------3--------
E|--4-----------------------------0-----1-----3-----------

Stave 3:

E|-----------------------------------------------0--------3-----------------------
B|-----1--1--1--0--------0--1--0--------------3-----3--1-----------------3--0--1--
G|--0-----------------------------2--0-----------------------0--0--0--2-----------
D|--------------------------------------------------------------------------------
A|-----3-----------------------------------------3-----------------------------3--
E|--------------3-----------2--------3--------------------0-----------1-----3-----

Stave 4:

E|-----------------------------------------0-----------------------
B|-----1-----1--3--1--0-----------3-----3-----3--1--0--------------
G|--0--------------------2--2--2--------------------------0-----0--
D|-----------------------------------------------------------------
A|-----3-----------------------------------------------------------
E|-----------------------1--------2-----------------3--------------

Stave 5:

E|--0-----0--1--0-----------------------------------
B|-----------------3--1--------------------3--0--1--
G|--------------------------2-----0--0--2-----------
D|--------------------------------------------------
A|--------------------0--------------------------3--
E|--4-----------------------------0-----1-----3-----

							http://www.guitartabcreator.com
Chords

Instruments
{"strings":[[[".",".","_",".",".",".",".",".",".",".",".","_",".",0,".",".",".","_",".","_","."],[".",1,"_",1,3,1,0,".",".",".",3,"_",3,".",3,1,0,"_",".","_","."],[0,".","_",".",".",".",".",2,2,2,".","_",".",".",".",".",".","_",0,"_",0],[".",".","_",".",".",".",".",".",".",".",".","_",".",".",".",".",".","_",".","_","."],[".",3,"_",".",".",".",".",".",".",".",".","_",".",".",".",".",".","_",".","_","."],[".",".","_",".",".",".",".",1,".",".",2,"_",".",".",".",".",3,"_",".","_","."]],[[0,"_",0,1,0,".",".","_",".","_",".",".",".",".",".",".","_","_"],[".","_",".",".",".",3,1,"_",".","_",".",".",".",3,0,1,"_","_"],[".","_",".",".",".",".",".","_",2,"_",0,0,2,".",".",".","_","_"],[".","_",".",".",".",".",".","_",".","_",".",".",".",".",".",".","_","_"],[".","_",".",".",".",".",0,"_",".","_",".",".",".",".",".",3,"_","_"],[4,"_",".",".",".",".",".","_",".","_",0,".",1,".",3,".","_","_"]],[[".",".",".",".",".","_","_",".",".",".",".",".","_","_",".",0,".",".",3,".",".",".",".",".",".","."],[".",1,1,1,0,"_","_",0,1,0,".",".","_","_",3,".",3,1,".",".",".",".",".",3,0,1],[0,".",".",".",".","_","_",".",".",".",2,0,"_","_",".",".",".",".",".",0,0,0,2,".",".","."],[".",".",".",".",".","_","_",".",".",".",".",".","_","_",".",".",".",".",".",".",".",".",".",".",".","."],[".",3,".",".",".","_","_",".",".",".",".",".","_","_",".",3,".",".",".",".",".",".",".",".",".",3],[".",".",".",".",3,"_","_",".",2,".",".",3,"_","_",".",".",".",".",0,".",".",".",1,".",3,"."]],[[".",".","_",".",".",".",".",".",".",".",".","_",".",0,".",".",".","_",".","_","."],[".",1,"_",1,3,1,0,".",".",".",3,"_",3,".",3,1,0,"_",".","_","."],[0,".","_",".",".",".",".",2,2,2,".","_",".",".",".",".",".","_",0,"_",0],[".",".","_",".",".",".",".",".",".",".",".","_",".",".",".",".",".","_",".","_","."],[".",3,"_",".",".",".",".",".",".",".",".","_",".",".",".",".",".","_",".","_","."],[".",".","_",".",".",".",".",1,".",".",2,"_",".",".",".",".",3,"_",".","_","."]],[[0,"_",0,1,0,".",".","_",".","_",".",".",".",".",".","."],[".","_",".",".",".",3,1,"_",".","_",".",".",".",3,0,1],[".","_",".",".",".",".",".","_",2,"_",0,0,2,".",".","."],[".","_",".",".",".",".",".","_",".","_",".",".",".",".",".","."],[".","_",".",".",".",".",0,"_",".","_",".",".",".",".",".",3],[4,"_",".",".",".",".",".","_",".","_",0,".",1,".",3,"."]]],"numberofstrings":6,"notes":["E","B","G","D","A","E","B"],"capo":0,"stringnotes":["E4","B3","G3","D3","A2","E2"],"comments":["Stave 1:","Stave 2:","Stave 3:","Stave 4:","Stave 5:"],"timing":[["W","W",null,"W","W","W","W","W","W","W","W",null,"W","W","W","W","W",null,"W",null,"W"],["W",null,"W","W","W","W","W",null,"W",null,"W","W","W","W","W","W"],["W","W","W","W","W",null,null,"W","W","W","W","W",null,null,"W","W","W","W","W","W","W","W","W","W","W","W"],["W","W","W","W","W","W","W","W","W","W","W",null,"W","W","W","W","W",null,"W","W","W"],["W",null,"W","W","W","W","W",null,"W",null,"W","W","W","W","W","W"]],"timingvisible":false,"tabcounter":16,"stave":4,"totalstaves":5,"instrument":"6guitar","selectedtuning":"6_standard","version":"13"}

Member for

9 months 3 weeks
Submitted by briangreen335 on Mon, 2020-11-23 16:49