'Sweet Leaf' -Black Sabbath

01234567891011121314151617181920212223
E
B
G
D
A
E
B
0 1 2 3 4 5 6 7 8 9 10 11 12 13 14 15 16 17 18 19 20 21 22 23
(/) Slide Up  (\) Slide Down  (h) Hammer On  (p) Pull Off  (b) Bend (r) Release (v) Vibrato

Stave 1:

E|-------------------------------|--
B|-------------------------------|--
G|-------------------------------|--
D|-----------7--6--5-----5/7-----|--
A|--7--7-----5--4--3-----3-5-----|--
E|--5--5-------------------------|--

Stave 2:

E|-------------------------------|--
B|-------------------------------|--
G|-------------------------------|--
D|-------------------------------|--
A|--7--------5--10--14--7--------|--
E|--5--------3--8---12--5--------|--

Stave 3:

E|-------------------------|--
B|-------------------------|--
G|----------7--6--5--5--7--|--
D|--5/7--7-----------------|--
A|-------------------------|--
E|-------------------------|--

							http://www.guitartabcreator.com
Chords

Instruments
{"strings":[[[".",".","_",".",".",".","_",".",".",".","_","|"],[".",".","_",".",".",".","_",".",".",".","_","|"],[".",".","_",".",".",".","_",".",".",".","_","|"],[".",".","_",7,6,5,"_",5,"/",7,"_","|"],[7,7,"_",5,4,3,"_",3,".",5,"_","|"],[5,5,"_",".",".",".","_",".",".",".","_","|"]],[[".","_","_",".",".",".",".","_","_","|"],[".","_","_",".",".",".",".","_","_","|"],[".","_","_",".",".",".",".","_","_","|"],[".","_","_",".",".",".",".","_","_","|"],[7,"_","_",5,10,14,7,"_","_","|"],[5,"_","_",3,8,12,5,"_","_","|"]],[[".",".",".",".",".",".",".",".",".","|"],[".",".",".",".",".",".",".",".",".","|"],[".",".",".",".",7,6,5,5,7,"|"],[5,"/",7,7,".",".",".",".",".","|"],[".",".",".",".",".",".",".",".",".","|"],[".",".",".",".",".",".",".",".",".","|"]]],"numberofstrings":6,"notes":["E","B","G","D","A","E","B"],"capo":0,"stringnotes":["E4","B3","G3","D3","A2","E2"],"comments":["Stave 1:","Stave 2:","Stave 3:"],"timing":[["W","W",null,"W","W","W",null,"W",null,"W"],["W",null,null,"W","W","W","W"],["W",null,"W","W","W","W","W","W","W"]],"timingvisible":false,"tabcounter":10,"stave":2,"totalstaves":3,"instrument":"6guitar","selectedtuning":"6_standard","version":"13"}

Member for

11 months 2 weeks
Submitted by briangreen335 on Thu, 2021-01-21 15:15