Spider-Man Theme

Chords

01234567891011121314151617181920212223
E
B
G
D
A
E
B
0 1 2 3 4 5 6 7 8 9 10 11 12 13 14 15 16 17 18 19 20 21 22 23
(/) Slide Up  (\) Slide Down  (h) Hammer On  (p) Pull Off  (b) Bend (r) Release (v) Vibrato

Stave 1:

E|-----------------------------------------------
B|-----------------------------------------------
G|--------7-----5-----------------7--7--5--------
D|--5--8-----------8--5-----5--8-----------8--5--
A|-----------------------------------------------
E|-----------------------------------------------

Stave 2:

E|---------10-----8-------------------10--10--8---------
B|--8--11------------11--8-----8--11-------------11--8--
G|------------------------------------------------------
D|------------------------------------------------------
A|------------------------------------------------------
E|------------------------------------------------------

							http://www.guitartabcreator.com
Instruments
{"strings":[[[".",".",".","_",".",".",".","_",".",".",".",".",".",".","."],[".",".",".","_",".",".",".","_",".",".",".",".",".",".","."],[".",".",7,"_",5,".",".","_",".",".",7,7,5,".","."],[5,8,".","_",".",8,5,"_",5,8,".",".",".",8,5],[".",".",".","_",".",".",".","_",".",".",".",".",".",".","."],[".",".",".","_",".",".",".","_",".",".",".",".",".",".","."]],[[".",".",10,"_",8,".",".","_",".",".",10,10,8,".","."],[8,11,".","_",".",11,8,"_",8,11,".",".",".",11,8],[".",".",".","_",".",".",".","_",".",".",".",".",".",".","."],[".",".",".","_",".",".",".","_",".",".",".",".",".",".","."],[".",".",".","_",".",".",".","_",".",".",".",".",".",".","."],[".",".",".","_",".",".",".","_",".",".",".",".",".",".","."]]],"numberofstrings":6,"notes":["E","B","G","D","A","E","B"],"capo":0,"stringnotes":["E4","B3","G3","D3","A2","E2"],"comments":["Stave 1:","Stave 2:"],"timing":[["W","W","W",null,"W","W","W",null,"W","W","W","W","W","W","W"],["W","W","W",null,"W","W","W",null,"W","W","W","W","W","W","W"]],"timingvisible":false,"tabcounter":15,"stave":1,"totalstaves":2,"instrument":"6guitar","selectedtuning":"6_standard","version":"13"}

Member for

8 months 1 week
Submitted by briangreen335 on Wed, 2020-10-28 15:00