'Rumble' -Link Wray

01234567891011121314151617181920212223
E
B
G
D
A
E
B
0 1 2 3 4 5 6 7 8 9 10 11 12 13 14 15 16 17 18 19 20 21 22 23
(/) Slide Up  (\) Slide Down  (h) Hammer On  (p) Pull Off  (b) Bend (r) Release (v) Vibrato

Stave 1:

E|--------0--------------------------0--------------
B|--3--3--0--------------------3--3--0--------------
G|--2--2--1--------------------2--2--1--------------
D|--0--0--2--------------------0--0--2--------------
A|--------2--------------------------2--------------
E|--------0--------------------------0--------------

Stave 2:

E|--------0--------------------0-----------------
B|--3--3--2--------------3--3--0-----------------
G|--2--2--2--------------2--2--1-----------------
D|--0--0--2--------------0--0--2-----------------
A|--------0--------------------2-----------------
E|-----------------------------0-----------------

Stave 3:

E|--------2--------------3--0--------------------------------
B|--3--3--0--------------------3--0--------------------------
G|--2--2--2--------------------------2--0--------------------
D|--0--0--1--------------------------------2--0--------------
A|--------2--------------------------------------2--0--------
E|-----------------------------------------------------3--0--

Stave 4:

E|--------0--------------------
B|--3--3--0--------------------
G|--2--2--1--------------------
D|--0--0--2--------------------
A|--------2--------------------
E|--------0--------------------

							http://www.guitartabcreator.com
Chords

Instruments
{"strings":[[[".",".",0,"_","_","_","_","_","_",".",".",0,"_","_","_","_"],[3,3,0,"_","_","_","_","_","_",3,3,0,"_","_","_","_"],[2,2,1,"_","_","_","_","_","_",2,2,1,"_","_","_","_"],[0,0,2,"_","_","_","_","_","_",0,0,2,"_","_","_","_"],[".",".",2,"_","_","_","_","_","_",".",".",2,"_","_","_","_"],[".",".",0,"_","_","_","_","_","_",".",".",0,"_","_","_","_"]],[[".",".",0,"_","_","_","_",".",".",0,"_","_","_","_","_"],[3,3,2,"_","_","_","_",3,3,0,"_","_","_","_","_"],[2,2,2,"_","_","_","_",2,2,1,"_","_","_","_","_"],[0,0,2,"_","_","_","_",0,0,2,"_","_","_","_","_"],[".",".",0,"_","_","_","_",".",".",2,"_","_","_","_","_"],[".",".",".","_","_","_","_",".",".",0,"_","_","_","_","_"]],[[".",".",2,"_","_","_","_",3,0,".",".",".",".",".",".",".",".",".","."],[3,3,0,"_","_","_","_",".",".",3,0,".",".",".",".",".",".",".","."],[2,2,2,"_","_","_","_",".",".",".",".",2,0,".",".",".",".",".","."],[0,0,1,"_","_","_","_",".",".",".",".",".",".",2,0,".",".",".","."],[".",".",2,"_","_","_","_",".",".",".",".",".",".",".",".",2,0,".","."],[".",".",".","_","_","_","_",".",".",".",".",".",".",".",".",".",".",3,0]],[[".",".",0,"_","_","_","_","_","_"],[3,3,0,"_","_","_","_","_","_"],[2,2,1,"_","_","_","_","_","_"],[0,0,2,"_","_","_","_","_","_"],[".",".",2,"_","_","_","_","_","_"],[".",".",0,"_","_","_","_","_","_"]]],"numberofstrings":6,"notes":["E","B","G","D","A","E","B"],"capo":0,"stringnotes":["E4","B3","G3","D3","A2","E2"],"comments":["Stave 1:","Stave 2:","Stave 3:","Stave 4:"],"timing":[["W","W","W",null,null,null,null,null,null,"W","W","W"],["W","W","W",null,null,null,null,"W","W","W"],["W","W","W",null,null,null,null,"W","W","W","W","W","W","W","W","W","W","W","W"],["W","W","W"]],"timingvisible":false,"tabcounter":9,"stave":3,"totalstaves":4,"instrument":"6guitar","selectedtuning":"6_standard","version":"13"}

Member for

1 year
Submitted by briangreen335 on Wed, 2021-01-13 15:41