'Rockin Around The Christmas Tree'

Chords

01234567891011121314151617181920212223
E
B
G
D
A
E
B
0 1 2 3 4 5 6 7 8 9 10 11 12 13 14 15 16 17 18 19 20 21 22 23
(/) Slide Up  (\) Slide Down  (h) Hammer On  (p) Pull Off  (b) Bend (r) Release (v) Vibrato

Stave 1:

E|-----------------------------------------------
B|--------------------------------0--------------
G|--0--0--0--2--2--0--0--2--0--0-----2-----------
D|--------------------------------------3--0-----
A|--------------------------------------------2--
E|-----------------------------------------------

Stave 2:

E|-----------------------------------------------
B|-----------0--0--------0-----------------------
G|--2--2--2--------2--2-----2--2--0--1--2--------
D|-----------------------------------------3--2--
A|-----------------------------------------------
E|-----------------------------------------------

Stave 3:

E|-----------------------------------------------
B|--------------------------------0--------------
G|--0--0--0--2--2--0--0--2--0--0-----2-----------
D|--------------------------------------3--0-----
A|--------------------------------------------2--
E|-----------------------------------------------

Stave 4:

E|-----------------------------------------------
B|-----------0--0--------0-----------------------
G|--2--2--2--------2--2-----2--2--0--1--2--------
D|-----------------------------------------------
A|-----------------------------------------2--3--
E|-----------------------------------------------

Stave 5:

E|-----------------------------------------
B|--------------------------0-----------0--
G|--2--1--2--1--2--------2-----0-----0-----
D|--------------------3-----------2--------
A|-----------------3-----------------------
E|-----------------------------------------

Stave 6:

E|-----------------------------------------------------
B|--1--0--1--0--1-----0--1--3-----1--0-----------0-----
G|-----------------2--------------------2--0--2-----0--
D|-----------------------------------------------------
A|-----------------------------------------------------
E|-----------------------------------------------------

Stave 7:

E|-----------------------------------------------
B|--------------------------------0--------------
G|--0--0--0--2--2--0--0--2--0--0-----2-----------
D|--------------------------------------3--0-----
A|--------------------------------------------2--
E|-----------------------------------------------

Stave 8:

E|-----------------------------------------------------------------------
B|-----------0--0--------0--------------------------0-----3--1--------1--
G|--2--2--2--------2--2-----2--2--0-----1-----2--------------------------
D|-----------------------------------------------------------------------
A|-----------------------------------------------------------------------
E|-----------------------------------------------------------------------

							http://www.guitartabcreator.com
Instruments
{"strings":[[[".",".",".",".",".",".",".",".",".",".",".",".",".",".","."],[".",".",".",".",".",".",".",".",".",".",0,".",".",".","."],[0,0,0,2,2,0,0,2,0,0,".",2,".",".","."],[".",".",".",".",".",".",".",".",".",".",".",".",3,0,"."],[".",".",".",".",".",".",".",".",".",".",".",".",".",".",2],[".",".",".",".",".",".",".",".",".",".",".",".",".",".","."]],[[".",".",".",".",".",".",".",".",".",".",".",".",".",".","."],[".",".",".",0,0,".",".",0,".",".",".",".",".",".","."],[2,2,2,".",".",2,2,".",2,2,0,1,2,".","."],[".",".",".",".",".",".",".",".",".",".",".",".",".",3,2],[".",".",".",".",".",".",".",".",".",".",".",".",".",".","."],[".",".",".",".",".",".",".",".",".",".",".",".",".",".","."]],[[".",".",".",".",".",".",".",".",".",".",".",".",".",".","."],[".",".",".",".",".",".",".",".",".",".",0,".",".",".","."],[0,0,0,2,2,0,0,2,0,0,".",2,".",".","."],[".",".",".",".",".",".",".",".",".",".",".",".",3,0,"."],[".",".",".",".",".",".",".",".",".",".",".",".",".",".",2],[".",".",".",".",".",".",".",".",".",".",".",".",".",".","."]],[[".",".",".",".",".",".",".",".",".",".",".",".",".",".","."],[".",".",".",0,0,".",".",0,".",".",".",".",".",".","."],[2,2,2,".",".",2,2,".",2,2,0,1,2,".","."],[".",".",".",".",".",".",".",".",".",".",".",".",".",".","."],[".",".",".",".",".",".",".",".",".",".",".",".",".",2,3],[".",".",".",".",".",".",".",".",".",".",".",".",".",".","."]],[[".",".",".",".",".",".",".",".",".",".",".",".","."],[".",".",".",".",".",".",".",".",0,".",".",".",0],[2,1,2,1,2,".",".",2,".",0,".",0,"."],[".",".",".",".",".",".",3,".",".",".",2,".","."],[".",".",".",".",".",3,".",".",".",".",".",".","."],[".",".",".",".",".",".",".",".",".",".",".",".","."]],[[".",".",".",".",".",".",".",".",".","_",".",".",".",".",".",".","."],[1,0,1,0,1,".",0,1,3,"_",1,0,".",".",".",0,"."],[".",".",".",".",".",2,".",".",".","_",".",".",2,0,2,".",0],[".",".",".",".",".",".",".",".",".","_",".",".",".",".",".",".","."],[".",".",".",".",".",".",".",".",".","_",".",".",".",".",".",".","."],[".",".",".",".",".",".",".",".",".","_",".",".",".",".",".",".","."]],[[".",".",".",".",".",".",".",".",".",".",".",".",".",".","."],[".",".",".",".",".",".",".",".",".",".",0,".",".",".","."],[0,0,0,2,2,0,0,2,0,0,".",2,".",".","."],[".",".",".",".",".",".",".",".",".",".",".",".",3,0,"."],[".",".",".",".",".",".",".",".",".",".",".",".",".",".",2],[".",".",".",".",".",".",".",".",".",".",".",".",".",".","."]],[[".",".",".",".",".",".",".",".",".",".",".","_",".","_",".","_",".","_",".",".","_","_","."],[".",".",".",0,0,".",".",0,".",".",".","_",".","_",".","_",0,"_",3,1,"_","_",1],[2,2,2,".",".",2,2,".",2,2,0,"_",1,"_",2,"_",".","_",".",".","_","_","."],[".",".",".",".",".",".",".",".",".",".",".","_",".","_",".","_",".","_",".",".","_","_","."],[".",".",".",".",".",".",".",".",".",".",".","_",".","_",".","_",".","_",".",".","_","_","."],[".",".",".",".",".",".",".",".",".",".",".","_",".","_",".","_",".","_",".",".","_","_","."]]],"numberofstrings":6,"notes":["E","B","G","D","A","E","B"],"capo":0,"stringnotes":["E4","B3","G3","D3","A2","E2"],"comments":["Stave 1:","Stave 2:","Stave 3:","Stave 4:","Stave 5:","Stave 6:","Stave 7:","Stave 8:"],"timing":[["W","W","W","W","W","W","W","W","W","W","W","W","W","W","W"],["W","W","W","W","W","W","W","W","W","W","W","W","W","W","W"],["W","W","W","W","W","W","W","W","W","W","W","W","W","W","W"],["W","W","W","W","W","W","W","W","W","W","W","W","W","W","W"],["W","W","W","W","W","W","W","W","W","W","W","W","W"],["W","W","W","W","W","W","W","W","W",null,"W","W","W","W","W","W","W"],["W","W","W","W","W","W","W","W","W","W","W","W","W","W","W"],["W","W","W","W","W","W","W","W","W","W","W",null,"W","W","W",null,"W",null,"W","W",null,null,"W"]],"timingvisible":false,"tabcounter":23,"stave":7,"totalstaves":8,"instrument":"6guitar","selectedtuning":"6_standard","version":"13"}

Member for

9 months 3 weeks
Submitted by briangreen335 on Mon, 2020-11-30 17:02