riffs for Joe's song

01234567891011121314151617181920212223
E
B
G
D
A
E
B
0 1 2 3 4 5 6 7 8 9 10 11 12 13 14 15 16 17 18 19 20 21 22 23
(/) Slide Up  (\) Slide Down  (h) Hammer On  (p) Pull Off  (b) Bend (r) Release (v) Vibrato

Stave 1:

E|--10--9--7-----10--9--7-----
B|----------------------------
G|--11--9--7-----11--9--7-----
D|----------------------------
A|----------------------------
E|----------------------------

Stave 2:

E|--10--9---7-----10--9---7-----
B|--10--10--8-----10--10--8-----
G|--11--9---7-----11--9---7-----
D|------------------------------
A|------------------------------
E|------------------------------

Stave 3:

E|--------------10------------------------------10---------------------
B|------12--10---------10h12p10---------12--10---------10h12p10--------
G|--11------------------------------11---------------------------------
D|---------------------------------------------------------------------
A|---------------------------------------------------------------------
E|---------------------------------------------------------------------

							http://www.guitartabcreator.com
Chords

Instruments
{"strings":[[[10,9,7,"_",10,9,7,"_"],[".",".",".","_",".",".",".","_"],[11,9,7,"_",11,9,7,"_"],[".",".",".","_",".",".",".","_"],[".",".",".","_",".",".",".","_"],[".",".",".","_",".",".",".","_"]],[[10,9,7,"_",10,9,7,"_"],[10,10,8,"_",10,10,8,"_"],[11,9,7,"_",11,9,7,"_"],[".",".",".","_",".",".",".","_"],[".",".",".","_",".",".",".","_"],[".",".",".","_",".",".",".","_"]],[[".",".",".",10,"_",".",".",".",".",".","_",".",".",".",10,"_",".",".",".",".",".","_","_"],[".",12,10,".","_",10,"h",12,"p",10,"_",".",12,10,".","_",10,"h",12,"p",10,"_","_"],[11,".",".",".","_",".",".",".",".",".","_",11,".",".",".","_",".",".",".",".",".","_","_"],[".",".",".",".","_",".",".",".",".",".","_",".",".",".",".","_",".",".",".",".",".","_","_"],[".",".",".",".","_",".",".",".",".",".","_",".",".",".",".","_",".",".",".",".",".","_","_"],[".",".",".",".","_",".",".",".",".",".","_",".",".",".",".","_",".",".",".",".",".","_","_"]]],"numberofstrings":6,"notes":["E","B","G","D","A","E","B"],"capo":0,"stringnotes":["E4","B3","G3","D3","A2","E2"],"comments":["Stave 1:","Stave 2:","Stave 3:"],"timing":[["W","W","W",null,"W","W","W","W","W","W",null,"W","W","W","W","W",null,"W","W","W","W","W","W",null,"W","W"],["W","W","W",null,"W","W","W"],["W","W","W","W",null,"W",null,"W",null,"W",null,"W","W","W","W",null,"W",null,"W",null,"W"]],"timingvisible":false,"tabcounter":23,"stave":2,"totalstaves":3,"instrument":"6guitar","selectedtuning":"6_standard","version":"13"}

Member for

11 months 2 weeks
Submitted by briangreen335 on Thu, 2021-01-21 15:51