'Piano Man' harmonica lead

01234567891011121314151617181920212223
E
B
G
D
A
E
B
0 1 2 3 4 5 6 7 8 9 10 11 12 13 14 15 16 17 18 19 20 21 22 23
(/) Slide Up  (\) Slide Down  (h) Hammer On  (p) Pull Off  (b) Bend (r) Release (v) Vibrato

Stave 1:

A|-----------0--------------------------------------------------------------
E|--3-----------3-----1-----0--1--0-----------------------0-----------------
C|--------------------------------------------0--------2-----2--------------
G|--------------------------------------------------------------------------

Stave 2:

A|-----------------0--------------------------------------------------------------------
E|--0--1--3-----------3-----1-----0--1--0--------------------------0--------------------
C|-----------------------------------------------------0--------2--------2--0-----------
G|--------------------------------------------------------------------------------------

							http://www.guitartabcreator.com
Chords

Instruments
{"strings":[[[".","_","_",0,".","_",".","_",".",".",".","_","_","_",".","_","_",".",".",".","_","_","_","_"],[3,"_","_",".",3,"_",1,"_",0,1,0,"_","_","_",".","_","_",".",0,".","_","_","_","_"],[".","_","_",".",".","_",".","_",".",".",".","_","_","_",0,"_","_",2,".",2,"_","_","_","_"],[".","_","_",".",".","_",".","_",".",".",".","_","_","_",".","_","_",".",".",".","_","_","_","_"]],[[".",".",".","_","_",0,".","_",".","_",".",".",".","_","_","_","_",".","_","_",".",".","_",".",".","_","_","_"],[0,1,3,"_","_",".",3,"_",1,"_",0,1,0,"_","_","_","_",".","_","_",".",0,"_",".",".","_","_","_"],[".",".",".","_","_",".",".","_",".","_",".",".",".","_","_","_","_",0,"_","_",2,".","_",2,0,"_","_","_"],[".",".",".","_","_",".",".","_",".","_",".",".",".","_","_","_","_",".","_","_",".",".","_",".",".","_","_","_"]]],"numberofstrings":4,"notes":["A","E","C","G"],"capo":0,"stringnotes":["A4","E4","C3","G5"],"comments":["Stave 1:","Stave 2:"],"timing":[["W",null,null,"W","W",null,"W",null,"W","W","W",null,null,null,"W",null,null,"W","W","W","W","W","W"],["W","W","W",null,null,"W","W",null,"W",null,"W","W","W",null,null,null,null,"W",null,null,"W","W",null,"W","W"]],"timingvisible":false,"tabcounter":24,"stave":0,"totalstaves":2,"instrument":"mandolin","selectedtuning":"mandolin","version":"13"}

Member for

9 months 3 weeks
Submitted by briangreen335 on Thu, 2020-11-12 08:41