'Money' -Pink Floyd

01234567891011121314151617181920212223
E
B
G
D
A
E
B
0 1 2 3 4 5 6 7 8 9 10 11 12 13 14 15 16 17 18 19 20 21 22 23
(/) Slide Up  (\) Slide Down  (h) Hammer On  (p) Pull Off  (b) Bend (r) Release (v) Vibrato

Stave 1:

E|--|:--------------------------:|-----------------------------------------------
B|--|:--------------------------:|-----------------------------------------------
G|--|:-----4--------------------:|--------------------------4--------------------
D|--|:--------4-----------------:|-----------------------------4-----------------
A|--|:--2--------2--------2--5--:|--2--5--2--------2--5--2--------2--------2--5--
E|--|:--------------2--5--------:|-----------2--5--------------------2--5--------

Stave 2:

E|-----------------------------------------------------------------------------
B|-----------------------------------------------------------------------------
G|-----------------------------------------------------4-----------------------
D|--4--4--4--------------4--3--2--------------------------4--------------------
A|-----------4--------4-----------2-----------2--5--2--------2--------2--5--2--
E|--------------2--5-----------------0--3--5--------------------2--5-----------

							http://www.guitartabcreator.com
Chords

Instruments
{"strings":[[["|:",".",".",".",".",".",".",".",".",":|",".",".",".",".",".",".",".",".",".",".",".",".",".",".","."],["|:",".",".",".",".",".",".",".",".",":|",".",".",".",".",".",".",".",".",".",".",".",".",".",".","."],["|:",".",4,".",".",".",".",".",".",":|",".",".",".",".",".",".",".",".",4,".",".",".",".",".","."],["|:",".",".",4,".",".",".",".",".",":|",".",".",".",".",".",".",".",".",".",4,".",".",".",".","."],["|:",2,".",".",2,".",".",2,5,":|",2,5,2,".",".",2,5,2,".",".",2,".",".",2,5],["|:",".",".",".",".",2,5,".",".",":|",".",".",".",2,5,".",".",".",".",".",".",2,5,".","."]],[[".",".",".",".",".",".",".",".",".",".",".",".",".",".",".",".",".",".",".",".",".",".",".",".","."],[".",".",".",".",".",".",".",".",".",".",".",".",".",".",".",".",".",".",".",".",".",".",".",".","."],[".",".",".",".",".",".",".",".",".",".",".",".",".",".",".",".",".",4,".",".",".",".",".",".","."],[4,4,4,".",".",".",".",4,3,2,".",".",".",".",".",".",".",".",4,".",".",".",".",".","."],[".",".",".",4,".",".",4,".",".",".",2,".",".",".",2,5,2,".",".",2,".",".",2,5,2],[".",".",".",".",2,5,".",".",".",".",".",0,3,5,".",".",".",".",".",".",2,5,".",".","."]]],"numberofstrings":6,"notes":["E","B","G","D","A","E","B"],"capo":0,"stringnotes":["E4","B3","G3","D3","A2","E2"],"comments":["Stave 1:","Stave 2:"],"timing":[[null,"W","W","W","W","W","W","W","W",null,"W","W","W","W","W","W","W","W","W","W","W","W","W","W","W"],["W","W","W","W","W","W","W","W","W","W","W","W","W","W","W","W","W","W","W","W","W","W","W","W","W"]],"timingvisible":false,"tabcounter":25,"stave":1,"totalstaves":2,"instrument":"6guitar","selectedtuning":"6_standard","version":"13"}

Member for

1 year 5 months
Submitted by briangreen335 on Wed, 2021-08-04 14:20