A minor scale (1 octave)

Chords

01234567891011121314151617181920212223
E
B
G
D
A
E
B
0 1 2 3 4 5 6 7 8 9 10 11 12 13 14 15 16 17 18 19 20 21 22 23
(/) Slide Up  (\) Slide Down  (h) Hammer On  (p) Pull Off  (b) Bend (r) Release (v) Vibrato

Stave 1:

E|--------------------------------------------------|--
B|--------------------------------------------------|--
G|--------------------0--2--2--0--------------------|--
D|-----------0--2--3--------------3--2--0-----------|--
A|--0--2--3--------------------------------3--2--0--|--
E|--------------------------------------------------|--

Stave 2:

E|--------------------3--5--5--3--------------------|--
B|-----------3--5--6--------------6--5--3-----------|--
G|--2--4--5--------------------------------5--4--2--|--
D|--------------------------------------------------|--
A|--------------------------------------------------|--
E|--------------------------------------------------|--

							http://www.guitartabcreator.com
Instruments
{"strings":[[[".",".",".",".",".",".",".",".",".",".",".",".",".",".",".",".","|"],[".",".",".",".",".",".",".",".",".",".",".",".",".",".",".",".","|"],[".",".",".",".",".",".",0,2,2,0,".",".",".",".",".",".","|"],[".",".",".",0,2,3,".",".",".",".",3,2,0,".",".",".","|"],[0,2,3,".",".",".",".",".",".",".",".",".",".",3,2,0,"|"],[".",".",".",".",".",".",".",".",".",".",".",".",".",".",".",".","|"]],[[".",".",".",".",".",".",3,5,5,3,".",".",".",".",".",".","|"],[".",".",".",3,5,6,".",".",".",".",6,5,3,".",".",".","|"],[2,4,5,".",".",".",".",".",".",".",".",".",".",5,4,2,"|"],[".",".",".",".",".",".",".",".",".",".",".",".",".",".",".",".","|"],[".",".",".",".",".",".",".",".",".",".",".",".",".",".",".",".","|"],[".",".",".",".",".",".",".",".",".",".",".",".",".",".",".",".","|"]]],"numberofstrings":6,"notes":["E","B","G","D","A","E","B"],"capo":0,"stringnotes":["E4","B3","G3","D3","A2","E2"],"comments":["Stave 1:","Stave 2:"],"timing":[["W","W","W","W","W","W","W","W","W","W","W","W","W","W","W","W"],["W","W","W","W","W","W","W","W","W","W","W","W","W","W","W","W"]],"timingvisible":false,"tabcounter":17,"stave":1,"totalstaves":2,"instrument":"6guitar","selectedtuning":"6_standard","version":"13"}

Member for

6 months 3 weeks
Submitted by briangreen335 on Thu, 2020-09-24 14:13