Melodic scale exercises

01234567891011121314151617181920212223
E
B
G
D
A
E
B
0 1 2 3 4 5 6 7 8 9 10 11 12 13 14 15 16 17 18 19 20 21 22 23
(/) Slide Up  (\) Slide Down  (h) Hammer On  (p) Pull Off  (b) Bend (r) Release (v) Vibrato

Stave 1:

E|-----------------------------------------------------------------------------------
B|-----------------------------------0-----1-----0-----------------------------------
G|-----------------------0-----2-----------------------2-----0-----------------------
D|-----0-----2-----3-----------------------------------------------3-----2-----0-----
A|--3-----3-----3-----3-----3-----3-----3-----3-----3-----3-----3-----3-----3-----3--
E|-----------------------------------------------------------------------------------

Stave 2:

E|-----------------------------------------------------------------------0-----1-----3--
B|-----------------------------------------------------0-----1-----3--------------------
G|-----------------------------------------0-----2--------------------------------------
D|-----------------------0-----2-----3--------------------------------------------------
A|-----0-----2-----3--------------------------------------------------------------------
E|--3-----3-----3-----3-----3-----3-----3-----3-----3-----3-----3-----3-----3-----3-----

Stave 3:

E|-----1-----0-----------------------------------------------------------------------
B|-----------------3-----1-----0-----------------------------------------------------
G|-----------------------------------2-----0-----------------------------------------
D|-----------------------------------------------3-----2-----0-----------------------
A|-----------------------------------------------------------------3-----2-----0-----
E|--3-----3-----3-----3-----3-----3-----3-----3-----3-----3-----3-----3-----3-----3--

							http://www.guitartabcreator.com
Chords

Instruments
{"strings":[[[".",".",".",".",".",".",".",".",".",".",".",".",".",".",".",".",".",".",".",".",".",".",".",".",".",".","."],[".",".",".",".",".",".",".",".",".",".",".",0,".",1,".",0,".",".",".",".",".",".",".",".",".",".","."],[".",".",".",".",".",".",".",0,".",2,".",".",".",".",".",".",".",2,".",0,".",".",".",".",".",".","."],[".",0,".",2,".",3,".",".",".",".",".",".",".",".",".",".",".",".",".",".",".",3,".",2,".",0,"."],[3,".",3,".",3,".",3,".",3,".",3,".",3,".",3,".",3,".",3,".",3,".",3,".",3,".",3],[".",".",".",".",".",".",".",".",".",".",".",".",".",".",".",".",".",".",".",".",".",".",".",".",".",".","."]],[[".",".",".",".",".",".",".",".",".",".",".",".",".",".",".",".",".",".",".",".",".",".",".",0,".",1,".",3],[".",".",".",".",".",".",".",".",".",".",".",".",".",".",".",".",".",0,".",1,".",3,".",".",".",".",".","."],[".",".",".",".",".",".",".",".",".",".",".",".",".",0,".",2,".",".",".",".",".",".",".",".",".",".",".","."],[".",".",".",".",".",".",".",0,".",2,".",3,".",".",".",".",".",".",".",".",".",".",".",".",".",".",".","."],[".",0,".",2,".",3,".",".",".",".",".",".",".",".",".",".",".",".",".",".",".",".",".",".",".",".",".","."],[3,".",3,".",3,".",3,".",3,".",3,".",3,".",3,".",3,".",3,".",3,".",3,".",3,".",3,"."]],[[".",1,".",0,".",".",".",".",".",".",".",".",".",".",".",".",".",".",".",".",".",".",".",".",".",".","."],[".",".",".",".",".",3,".",1,".",0,".",".",".",".",".",".",".",".",".",".",".",".",".",".",".",".","."],[".",".",".",".",".",".",".",".",".",".",".",2,".",0,".",".",".",".",".",".",".",".",".",".",".",".","."],[".",".",".",".",".",".",".",".",".",".",".",".",".",".",".",3,".",2,".",0,".",".",".",".",".",".","."],[".",".",".",".",".",".",".",".",".",".",".",".",".",".",".",".",".",".",".",".",".",3,".",2,".",0,"."],[3,".",3,".",3,".",3,".",3,".",3,".",3,".",3,".",3,".",3,".",3,".",3,".",3,".",3]]],"numberofstrings":6,"notes":["E","B","G","D","A","E","B"],"capo":0,"stringnotes":["E4","B3","G3","D3","A2","E2"],"comments":["Stave 1:","Stave 2:","Stave 3:"],"timing":[["W","W","W","W","W","W","W","W","W","W","W","W","W","W","W","W","W","W","W","W","W","W","W","W","W","W","W"],["W","W","W","W","W","W","W","W","W","W","W","W","W","W","W","W","W","W","W","W","W","W","W","W","W","W","W","W"],["W","W","W","W","W","W","W","W","W","W","W","W","W","W","W","W","W","W","W","W","W","W","W","W","W","W","W"]],"timingvisible":false,"tabcounter":27,"stave":2,"totalstaves":3,"instrument":"6guitar","selectedtuning":"6_standard","version":"13"}

Member for

9 months 4 weeks
Submitted by briangreen335 on Thu, 2020-12-03 13:46