'jesu Joy Of Mans Desiring' -Bach

01234567891011121314151617181920212223
E
B
G
D
A
E
B
0 1 2 3 4 5 6 7 8 9 10 11 12 13 14 15 16 17 18 19 20 21 22 23
(/) Slide Up  (\) Slide Down  (h) Hammer On  (p) Pull Off  (b) Bend (r) Release (v) Vibrato

Stave 1:

E|-----------------------0--------3--2--3-----------------------0--------------------
B|-----------0--3--1--1-----3--3-----------3--0--------0--1--3-----3--1--0-----0-----
G|-----0--2--------------------------------------0--2-----------------------2-----0--
D|-----------------------------------------------------------------------------------
A|-----------------------------------------------------------------------------------
E|--3--------------------------------------------------------------------------------

Stave 2:

E|--------------------------------------------------0--------3--2--3--------
B|--------------------1--0-----0--------0--3--1--1-----3--3-----------3--0--
G|-----0--2--------2--------2-----0--2--------------------------------------
D|--4--------0--4-----------------------------------------------------------
A|--------------------------------------------------------------------------
E|--------------------------------------------------------------------------

Stave 3:

E|-----------------------------------------
B|--------0-----3--1--0--------------------
G|--0--2-----2-----------2--0-----0-----0--
D|-----------------------------0-----4-----
A|-----------------------------------------
E|-----------------------------------------

							http://www.guitartabcreator.com
Chords

Instruments
{"strings":[[[".",".",".",".",".",".",".",0,".",".",3,2,3,".",".",".",".",".",".",".",0,".",".",".",".",".","."],[".",".",".",0,3,1,1,".",3,3,".",".",".",3,0,".",".",0,1,3,".",3,1,0,".",0,"."],[".",0,2,".",".",".",".",".",".",".",".",".",".",".",".",0,2,".",".",".",".",".",".",".",2,".",0],[".",".",".",".",".",".",".",".",".",".",".",".",".",".",".",".",".",".",".",".",".",".",".",".",".",".","."],[".",".",".",".",".",".",".",".",".",".",".",".",".",".",".",".",".",".",".",".",".",".",".",".",".",".","."],[3,".",".",".",".",".",".",".",".",".",".",".",".",".",".",".",".",".",".",".",".",".",".",".",".",".","."]],[[".",".",".",".",".",".",".",".",".",".",".",".",".",".",".",".",0,".",".",3,2,3,".","."],[".",".",".",".",".",".",1,0,".",0,".",".",0,3,1,1,".",3,3,".",".",".",3,0],[".",0,2,".",".",2,".",".",2,".",0,2,".",".",".",".",".",".",".",".",".",".",".","."],[4,".",".",0,4,".",".",".",".",".",".",".",".",".",".",".",".",".",".",".",".",".",".","."],[".",".",".",".",".",".",".",".",".",".",".",".",".",".",".",".",".",".",".",".",".",".",".","."],[".",".",".",".",".",".",".",".",".",".",".",".",".",".",".",".",".",".",".",".",".",".",".","."]],[[".",".",".",".",".",".",".",".",".",".",".",".","."],[".",".",0,".",3,1,0,".",".",".",".",".","."],[0,2,".",2,".",".",".",2,0,".",0,".",0],[".",".",".",".",".",".",".",".",".",0,".",4,"."],[".",".",".",".",".",".",".",".",".",".",".",".","."],[".",".",".",".",".",".",".",".",".",".",".",".","."]]],"numberofstrings":6,"notes":["E","B","G","D","A","E","B"],"capo":0,"stringnotes":["E4","B3","G3","D3","A2","E2"],"comments":["Stave 1:","Stave 2:","Stave 3:"],"timing":[["W","W","W","W","W","W","W","W","W","W","W","W","W","W","W","W","W","W","W","W","W","W","W","W","W","W","W","W","W","W","W"],["W","W","W","W","W","W","W","W","W","W","W","W","W","W","W","W","W","W","W","W","W","W","W","W","W","W","W","W","W","W","W","W","W","W"],["W","W","W","W","W","W","W","W","W","W","W","W","W"]],"timingvisible":false,"tabcounter":27,"stave":0,"totalstaves":3,"instrument":"6guitar","selectedtuning":"6_standard","version":"13"}

Member for

11 months 2 weeks
Submitted by briangreen335 on Wed, 2020-12-30 16:55