'House Of The Rising Sun' (melody)

01234567891011121314151617181920212223
E
B
G
D
A
E
B
0 1 2 3 4 5 6 7 8 9 10 11 12 13 14 15 16 17 18 19 20 21 22 23
(/) Slide Up  (\) Slide Down  (h) Hammer On  (p) Pull Off  (b) Bend (r) Release (v) Vibrato

Stave 1:

E|--------------------------------------5-----5--3-------------------
B|-----------0--1-----3--3-----------------------------5p3--5--------
G|--2--2--------------------2--------2-------------------------------
D|-------------------------------------------------------------------
A|-------------------------------------------------------------------
E|-------------------------------------------------------------------

Stave 2:

E|--5--5-----5--3--0-----0----------------------------------------------------------
B|--------------------------3-----------1-----0-------------------------------------
G|-----------------------------2-----2-----------2-----2--1--------5p4--2-----------
D|-----------------------------------------------------------2----------------------
A|----------------------------------------------------------------------------------
E|----------------------------------------------------------------------------------

							http://www.guitartabcreator.com
Chords

Instruments
{"strings":[[[".",".","_",".",".","_",".",".",".","_","_",".",5,"_",5,3,"_",".",".",".",".","_","_"],[".",".","_",0,1,"_",3,3,".","_","_",".",".","_",".",".","_",5,"p",3,5,"_","_"],[2,2,"_",".",".","_",".",".",2,"_","_",2,".","_",".",".","_",".",".",".",".","_","_"],[".",".","_",".",".","_",".",".",".","_","_",".",".","_",".",".","_",".",".",".",".","_","_"],[".",".","_",".",".","_",".",".",".","_","_",".",".","_",".",".","_",".",".",".",".","_","_"],[".",".","_",".",".","_",".",".",".","_","_",".",".","_",".",".","_",".",".",".",".","_","_"]],[[5,5,"_",5,3,0,"_",0,".",".","_",".",".","_",".",".","_",".",".",".","_",".",".",".",".","_","_","_"],[".",".","_",".",".",".","_",".",3,".","_",".",1,"_",0,".","_",".",".",".","_",".",".",".",".","_","_","_"],[".",".","_",".",".",".","_",".",".",2,"_",2,".","_",".",2,"_",2,1,".","_",5,"p",4,2,"_","_","_"],[".",".","_",".",".",".","_",".",".",".","_",".",".","_",".",".","_",".",".",2,"_",".",".",".",".","_","_","_"],[".",".","_",".",".",".","_",".",".",".","_",".",".","_",".",".","_",".",".",".","_",".",".",".",".","_","_","_"],[".",".","_",".",".",".","_",".",".",".","_",".",".","_",".",".","_",".",".",".","_",".",".",".",".","_","_","_"]]],"numberofstrings":6,"notes":["E","B","G","D","A","E","B"],"capo":0,"stringnotes":["E4","B3","G3","D3","A2","E2"],"comments":["Stave 1:","Stave 2:"],"timing":[["W","W",null,"W","W",null,"W","W","W",null,null,"W","W",null,"W","W",null,"W",null,"W","W"],["W","W",null,"W","W","W",null,"W","W","W",null,"W","W",null,"W","W",null,"W","W","W",null,"W",null,"W","W"]],"timingvisible":false,"tabcounter":28,"stave":1,"totalstaves":2,"instrument":"6guitar","selectedtuning":"6_standard","version":"13"}

Member for

11 months 2 weeks
Submitted by briangreen335 on Mon, 2021-01-18 17:05