'Helter Skelter' (cont'd) Verse/pre chorus/chorus

01234567891011121314151617181920212223
E
B
G
D
A
E
B
0 1 2 3 4 5 6 7 8 9 10 11 12 13 14 15 16 17 18 19 20 21 22 23
(/) Slide Up  (\) Slide Down  (h) Hammer On  (p) Pull Off  (b) Bend (r) Release (v) Vibrato

Stave 1:

E|--------------------------------------------------------------------------------------------------
B|--------------------------------------------------------------------------------------------------
G|--------------------------------------------------------------------------------------------------
D|--------------------------------------------------------------------------------------------------
A|--3-----2--2--2-----2--2--3-----2--2--2-----2--2--3-----2--2--2-----2--2--3-----2--2--2-----2--2--
E|--1-----0--0--0-----0--0--1-----0--0--0-----0--0--1-----0--0--0-----0--0--1-----0--0--0-----0--0--

Stave 2:

E|--3--3--3--3--------------0--0--0--0--
B|--3--3--3--3--2-----------0--0--0--0--
G|--0--0--0--0--2-----------1--1--1--1--
D|--0--0--0--0--2-----------2--2--2--2--
A|--2--2--2--2--0-----------2--2--2--2--
E|--3--3--3--3--------------0--0--0--0--

Stave 3:

E|--------------------------------------------------------------------------------------------------------
B|--------------------------------------------------------------------------------------------------------
G|--------------------------------------------------------------------------------------------------------
D|--2--2--2--2--5--4--2-----------------------------------------------2--2--2--2--5--4--2-----------------
A|--0--0--0--0-----------5--4--2--0--2--2--2--2--5--4--2--------------0--0--0--0-----------5--4--2--0--2--
E|-----------------------------------0--0--0--0-----------5--4--2--0-----------------------------------0--

Stave 4:

E|--0----
B|--3b5--
G|-------
D|-------
A|-------
E|-------

							http://www.guitartabcreator.com
Chords

Instruments
{"strings":[[[".","_",".",".",".","_",".",".",".","_",".",".",".","_",".",".",".","_",".",".",".","_",".",".",".","_",".",".",".","_",".","."],[".","_",".",".",".","_",".",".",".","_",".",".",".","_",".",".",".","_",".",".",".","_",".",".",".","_",".",".",".","_",".","."],[".","_",".",".",".","_",".",".",".","_",".",".",".","_",".",".",".","_",".",".",".","_",".",".",".","_",".",".",".","_",".","."],[".","_",".",".",".","_",".",".",".","_",".",".",".","_",".",".",".","_",".",".",".","_",".",".",".","_",".",".",".","_",".","."],[3,"_",2,2,2,"_",2,2,3,"_",2,2,2,"_",2,2,3,"_",2,2,2,"_",2,2,3,"_",2,2,2,"_",2,2],[1,"_",0,0,0,"_",0,0,1,"_",0,0,0,"_",0,0,1,"_",0,0,0,"_",0,0,1,"_",0,0,0,"_",0,0]],[[3,3,3,3,".","_","_","_",0,0,0,0],[3,3,3,3,2,"_","_","_",0,0,0,0],[0,0,0,0,2,"_","_","_",1,1,1,1],[0,0,0,0,2,"_","_","_",2,2,2,2],[2,2,2,2,0,"_","_","_",2,2,2,2],[3,3,3,3,".","_","_","_",0,0,0,0]],[[".",".",".",".",".",".",".",".",".",".",".",".",".",".",".",".",".",".",".",".",".",".",".",".",".",".",".",".",".",".",".",".",".","."],[".",".",".",".",".",".",".",".",".",".",".",".",".",".",".",".",".",".",".",".",".",".",".",".",".",".",".",".",".",".",".",".",".","."],[".",".",".",".",".",".",".",".",".",".",".",".",".",".",".",".",".",".",".",".",".",".",".",".",".",".",".",".",".",".",".",".",".","."],[2,2,2,2,5,4,2,".",".",".",".",".",".",".",".",".",".",".",".",".",".",".",2,2,2,2,5,4,2,".",".",".",".","."],[0,0,0,0,".",".",".",5,4,2,0,2,2,2,2,5,4,2,".",".",".",".",0,0,0,0,".",".",".",5,4,2,0,2],[".",".",".",".",".",".",".",".",".",".",".",0,0,0,0,".",".",".",5,4,2,0,".",".",".",".",".",".",".",".",".",".",".",0]],[[0,".","."],[3,"b",5],[".",".","."],[".",".","."],[".",".","."],[".",".","."]]],"numberofstrings":6,"notes":["E","B","G","D","A","E","B"],"capo":0,"stringnotes":["E4","B3","G3","D3","A2","E2"],"comments":["Stave 1:","Stave 2:","Stave 3:","Stave 4:"],"timing":[["W","W","W","W","W","W","W","W","W","W","W","W","W","W","W","W","W","W","W","W","W","W","W","W","W",null,"W","W","W",null,"W","W"],["W","W","W","W","W","W",null,null,"W","W","W","W"],["W","W","W","W","W","W","W","W","W","W","W","W","W","W","W","W","W","W","W","W","W","W","W","W","W","W","W","W","W","W","W","W","W","W"],["W",null,"W"]],"timingvisible":false,"tabcounter":3,"stave":3,"totalstaves":4,"instrument":"6guitar","selectedtuning":"6_standard","version":"13"}

Member for

9 months 3 weeks
Submitted by briangreen335 on Mon, 2020-11-09 16:31