'Harvest Moon' -Neil Young

01234567891011121314151617181920212223
E
B
G
D
A
E
B
0 1 2 3 4 5 6 7 8 9 10 11 12 13 14 15 16 17 18 19 20 21 22 23
(/) Slide Up  (\) Slide Down  (h) Hammer On  (p) Pull Off  (b) Bend (r) Release (v) Vibrato

Stave 1:

E|-----5--7--7--7-----9---9---9------9------9------|--|--
B|-----7--7--7--7-----10--10--10-----10-----10-----|--|--
G|-----7--7--7--7-----11--11--11-----11-----11-----|--|--
D|--0--0--------------0---------------------0------|--|--
A|--0----------------------------------------------|--|--
D|--0----------------------------------------------|--|--

Stave 2:

E|--0-----|--0-----|--0-----|--0-----|--2--|--2-----|--2-----|--2-----|--|--
B|--0-----|--0-----|--0-----|--0-----|--3--|--2-----|--3-----|--2-----|--|--
G|--0-----|--0-----|--0-----|--0-----|--2--|--2-----|--2-----|--2-----|--|--
D|--2-----|--2-----|--2-----|--2-----|--0--|--0-----|--0-----|--0-----|--|--
A|--2-----|--2-----|--2-----|--2-----|--0--|--0-----|--0-----|--0-----|--|--
D|--2-----|--2-----|--2-----|--2-----|--0--|--0-----|--0-----|--0-----|--|--

Stave 3:

E|--3-----|--3-----|--3-----|--3-----5--7--7--7--9---9---9---9---9---
B|--0-----|--0-----|--0-----|--0-----7--7--7--7--10--10--10--10--10--
G|--0-----|--0-----|--0-----|--0-----7--7--7--7--11--11--11--11--11--
D|--0-----|--0-----|--0-----|--0-----0--0--------0-------------------
A|--------|--------|--------|--------0-------------------------------
D|--5-----|--5-----|--5-----|--5-----0-------------------------------

Stave 4:

E|--5--7--7--7--9---9---9---9---9---
B|--7--7--7--7--10--10--10--10--10--
G|--7--7--7--7--11--11--11--11--11--
D|--0--0--------0-------------------
A|--0-------------------------------
D|--0-------------------------------

							http://www.guitartabcreator.com
Chords

Tab Notes
Stave 1-x4....Stave 2-x2...Stave 3&4...x2
Instruments
{"strings":[[[".",5,7,7,7,"_",9,9,9,"_",9,"_",9,"_","|","|"],[".",7,7,7,7,"_",10,10,10,"_",10,"_",10,"_","|","|"],[".",7,7,7,7,"_",11,11,11,"_",11,"_",11,"_","|","|"],[0,0,".",".",".","_",0,".",".","_",".","_",0,"_","|","|"],[0,".",".",".",".","_",".",".",".","_",".","_",".","_","|","|"],[0,".",".",".",".","_",".",".",".","_",".","_",".","_","|","|"]],[[0,"_","|",0,"_","|",0,"_","|",0,"_","|",2,"|",2,"_","|",2,"_","|",2,"_","|","|"],[0,"_","|",0,"_","|",0,"_","|",0,"_","|",3,"|",2,"_","|",3,"_","|",2,"_","|","|"],[0,"_","|",0,"_","|",0,"_","|",0,"_","|",2,"|",2,"_","|",2,"_","|",2,"_","|","|"],[2,"_","|",2,"_","|",2,"_","|",2,"_","|",0,"|",0,"_","|",0,"_","|",0,"_","|","|"],[2,"_","|",2,"_","|",2,"_","|",2,"_","|",0,"|",0,"_","|",0,"_","|",0,"_","|","|"],[2,"_","|",2,"_","|",2,"_","|",2,"_","|",0,"|",0,"_","|",0,"_","|",0,"_","|","|"]],[[3,"_","|",3,"_","|",3,"_","|",3,"_",5,7,7,7,9,9,9,9,9],[0,"_","|",0,"_","|",0,"_","|",0,"_",7,7,7,7,10,10,10,10,10],[0,"_","|",0,"_","|",0,"_","|",0,"_",7,7,7,7,11,11,11,11,11],[0,"_","|",0,"_","|",0,"_","|",0,"_",0,0,".",".",0,".",".",".","."],[".","_","|",".","_","|",".","_","|",".","_",0,".",".",".",".",".",".",".","."],[5,"_","|",5,"_","|",5,"_","|",5,"_",0,".",".",".",".",".",".",".","."]],[[5,7,7,7,9,9,9,9,9],[7,7,7,7,10,10,10,10,10],[7,7,7,7,11,11,11,11,11],[0,0,".",".",0,".",".",".","."],[0,".",".",".",".",".",".",".","."],[0,".",".",".",".",".",".",".","."]]],"numberofstrings":6,"notes":["E","B","G","D","A","D","B"],"capo":0,"stringnotes":["E4","B3","G3","D3","A2","D2"],"comments":["Stave 1:","Stave 2:","Stave 3:","Stave 4:"],"timing":[["W","W","W","W","W","W","W","W","W","W","W",null,"W"],["W","W",null,"W",null,null,"W",null,null,"W",null,null,"W",null,"W",null,null,"W",null,null,"W"],["W",null,null,"W",null,null,"W",null,null,"W",null,"W","W","W","W","W","W","W","W","W","W","W"],["W","W","W","W","W","W","W","W","W"]],"timingvisible":false,"tabcounter":8,"stave":3,"totalstaves":4,"instrument":"6guitar","selectedtuning":"6_standard","version":"13"}

Member for

11 months 2 weeks
Submitted by briangreen335 on Wed, 2021-01-20 18:04