'Hallelujah' (chord melody ver. 2)

Chords

01234567891011121314151617181920212223
E
B
G
D
A
E
B
0 1 2 3 4 5 6 7 8 9 10 11 12 13 14 15 16 17 18 19 20 21 22 23
(/) Slide Up  (\) Slide Down  (h) Hammer On  (p) Pull Off  (b) Bend (r) Release (v) Vibrato

Stave 1:

E|--0-----3-----5-----5-----5-----------0-----0-----0-----3-----5-----5-----5--------
B|--1-----------6-----------6-----8-----1-----------1-----------6-----------6-----8--
G|--2-----------5-----------5-----------2-----------2-----------5-----------5--------
D|--2-----------7-----------7-----------2-----------2-----------7-----------7--------
A|--0-----------------------------------0-----------0--------------------------------
E|-----------------------------------------------------------------------------------

Stave 2:

E|--0-----1--0-----------------------0-----------------0-----------------0--------
B|--1-----------3-----1-----1--------1-----------------1-----------------1--------
G|--0-----------0-----------0-----0--0--------------2--2--------------0--0--------
D|--2-----------0-----------2--2-----------------2-----------------2--------------
A|--3-----------2-----------3-----------3--2--0-----------0--2--3-----------3--2--
E|--------------3-----------------------------------------------------------------

Stave 3:

E|-----------0-----------------0--
B|-----------1-----------------1--
G|--------2--2--------------0--0--
D|-----2-----------------2--------
A|--0-----------0--2--3-----------
E|--------------------------------

							http://www.guitartabcreator.com
Instruments
{"strings":[[[0,"_",3,"_",5,"_",5,"_",5,"_",".","_",0,"_",0,"_",0,"_",3,"_",5,"_",5,"_",5,"_","."],[1,"_",".","_",6,"_",".","_",6,"_",8,"_",1,"_",".","_",1,"_",".","_",6,"_",".","_",6,"_",8],[2,"_",".","_",5,"_",".","_",5,"_",".","_",2,"_",".","_",2,"_",".","_",5,"_",".","_",5,"_","."],[2,"_",".","_",7,"_",".","_",7,"_",".","_",2,"_",".","_",2,"_",".","_",7,"_",".","_",7,"_","."],[0,"_",".","_",".","_",".","_",".","_",".","_",0,"_",".","_",0,"_",".","_",".","_",".","_",".","_","."],[".","_",".","_",".","_",".","_",".","_",".","_",".","_",".","_",".","_",".","_",".","_",".","_",".","_","."]],[[0,"_",1,0,".","_",".","_",".",".",".",0,".",".",".",".",".",0,".",".",".",".",".",0,".","."],[1,"_",".",".",3,"_",1,"_",1,".",".",1,".",".",".",".",".",1,".",".",".",".",".",1,".","."],[0,"_",".",".",0,"_",".","_",0,".",0,0,".",".",".",".",2,2,".",".",".",".",0,0,".","."],[2,"_",".",".",0,"_",".","_",2,2,".",".",".",".",".",2,".",".",".",".",".",2,".",".",".","."],[3,"_",".",".",2,"_",".","_",3,".",".",".",3,2,0,".",".",".",0,2,3,".",".",".",3,2],[".","_",".",".",3,"_",".","_",".",".",".",".",".",".",".",".",".",".",".",".",".",".",".",".",".","."]],[[".",".",".",0,".",".",".",".",".",0],[".",".",".",1,".",".",".",".",".",1],[".",".",2,2,".",".",".",".",0,0],[".",2,".",".",".",".",".",2,".","."],[0,".",".",".",0,2,3,".",".","."],[".",".",".",".",".",".",".",".",".","."]]],"numberofstrings":6,"notes":["E","B","G","D","A","E","B"],"capo":0,"stringnotes":["E4","B3","G3","D3","A2","E2"],"comments":["Stave 1:","Stave 2:","Stave 3:"],"timing":[["W",null,"W",null,"W",null,"W",null,"W",null,"W",null,"W",null,"W",null,"W",null,"W",null,"W",null,"W",null,"W",null,"W"],["W",null,"W","W","W",null,"W",null,"W","W","W","W","W","W","W","W","W","W","W","W","W","W","W","W","W","W","W","W","W"],["W","W","W","W","W","W","W","W","W","W"]],"timingvisible":false,"tabcounter":9,"stave":2,"totalstaves":3,"instrument":"6guitar","selectedtuning":"6_standard","version":"13"}

Member for

6 months 3 weeks
Submitted by briangreen335 on Wed, 2020-09-30 16:50