Cycle of 4ths minor pentatonic exercise

01234567891011121314151617181920212223
E
B
G
D
A
E
B
0 1 2 3 4 5 6 7 8 9 10 11 12 13 14 15 16 17 18 19 20 21 22 23
(/) Slide Up  (\) Slide Down  (h) Hammer On  (p) Pull Off  (b) Bend (r) Release (v) Vibrato

Stave 1:

E|--3--------------------------------------8-----------------------------------------
B|--4--------------------------------------9-----------------------------------------
G|--5--------------3--5--3-----------------10----------------8--10--8----------------
D|--5--------3--5-----------5--3-----------10---------8--10------------10--8---------
A|--3--3--6-----------------------6--3-----8---8--11--------------------------11--8--
E|-----------------------------------------------------------------------------------

Stave 2:

E|--1--------------------------------------6-----------------------------------
B|--2--------------------------------------7-----------------------------------
G|--3--------------1--3--1-----------------8--------------6--8--6--------------
D|--3--------1--3-----------3--1-----------8--------6--8-----------8--6--------
A|--1--1--4-----------------------4--1-----6--6--9-----------------------9--6--
E|-----------------------------------------------------------------------------

Stave 3:

E|--11-------------------------------------------------4-----------------------------------
B|--12-------------------------------------------------5-----------------------------------
G|--13------------------11--13--11---------------------6--------------4--6--4--------------
D|--13----------11--13--------------13--11-------------6--------4--6-----------6--4--------
A|--11--11--14------------------------------14--11-----4--4--7-----------------------7--4--
E|-----------------------------------------------------------------------------------------

Stave 4:

E|--9-----------------------------------------------2-----------------------------------
B|--10----------------------------------------------3-----------------------------------
G|--11-------------------9--11--9-------------------4--------------2--4--2--------------
D|--11------------9--11------------11--9------------4--------2--4-----------4--2--------
A|--9------9--12--------------------------12--9-----2--2--5-----------------------5--2--
E|--------------------------------------------------------------------------------------

Stave 5:

E|--7----------------------------------------12----------------------------------------------
B|--8----------------------------------------13----------------------------------------------
G|--9---------------7--9--7------------------14------------------12--14--12------------------
D|--9---------7--9-----------9--7------------14----------12--14--------------14--12----------
A|--7--7--10-----------------------10--7-----12--12--15------------------------------15--12--
E|-------------------------------------------------------------------------------------------

Stave 6:

E|--5--------------------------------------10----------------------------------------------
B|--6--------------------------------------11----------------------------------------------
G|--7--------------5--7--5-----------------12------------------10--12--10------------------
D|--7--------5--7-----------7--5-----------12----------10--12--------------12--10----------
A|--5--5--8-----------------------8--5-----10--10--13------------------------------13--10--
E|-----------------------------------------------------------------------------------------

							http://www.guitartabcreator.com
Chords

Tab Notes
Cycle of 4ths route notes (on 5th string)-C-F-Bb-Eb-Ab-Db-Gb/F#-B-E-A-D-G
Instruments
{"strings":[[[3,".",".",".",".",".",".",".",".",".",".",".","_",8,".",".",".",".",".",".",".",".",".",".","."],[4,".",".",".",".",".",".",".",".",".",".",".","_",9,".",".",".",".",".",".",".",".",".",".","."],[5,".",".",".",".",3,5,3,".",".",".",".","_",10,".",".",".",".",8,10,8,".",".",".","."],[5,".",".",3,5,".",".",".",5,3,".",".","_",10,".",".",8,10,".",".",".",10,8,".","."],[3,3,6,".",".",".",".",".",".",".",6,3,"_",8,8,11,".",".",".",".",".",".",".",11,8],[".",".",".",".",".",".",".",".",".",".",".",".","_",".",".",".",".",".",".",".",".",".",".",".","."]],[[1,".",".",".",".",".",".",".",".",".",".",".","_",6,".",".",".",".",".",".",".",".",".",".","."],[2,".",".",".",".",".",".",".",".",".",".",".","_",7,".",".",".",".",".",".",".",".",".",".","."],[3,".",".",".",".",1,3,1,".",".",".",".","_",8,".",".",".",".",6,8,6,".",".",".","."],[3,".",".",1,3,".",".",".",3,1,".",".","_",8,".",".",6,8,".",".",".",8,6,".","."],[1,1,4,".",".",".",".",".",".",".",4,1,"_",6,6,9,".",".",".",".",".",".",".",9,6],[".",".",".",".",".",".",".",".",".",".",".",".","_",".",".",".",".",".",".",".",".",".",".",".","."]],[[11,".",".",".",".",".",".",".",".",".",".",".","_",4,".",".",".",".",".",".",".",".",".",".","."],[12,".",".",".",".",".",".",".",".",".",".",".","_",5,".",".",".",".",".",".",".",".",".",".","."],[13,".",".",".",".",11,13,11,".",".",".",".","_",6,".",".",".",".",4,6,4,".",".",".","."],[13,".",".",11,13,".",".",".",13,11,".",".","_",6,".",".",4,6,".",".",".",6,4,".","."],[11,11,14,".",".",".",".",".",".",".",14,11,"_",4,4,7,".",".",".",".",".",".",".",7,4],[".",".",".",".",".",".",".",".",".",".",".",".","_",".",".",".",".",".",".",".",".",".",".",".","."]],[[9,"_",".",".",".",".",".",".",".",".",".",".",".","_",2,".",".",".",".",".",".",".",".",".",".","."],[10,"_",".",".",".",".",".",".",".",".",".",".",".","_",3,".",".",".",".",".",".",".",".",".",".","."],[11,"_",".",".",".",".",9,11,9,".",".",".",".","_",4,".",".",".",".",2,4,2,".",".",".","."],[11,"_",".",".",9,11,".",".",".",11,9,".",".","_",4,".",".",2,4,".",".",".",4,2,".","."],[9,"_",9,12,".",".",".",".",".",".",".",12,9,"_",2,2,5,".",".",".",".",".",".",".",5,2],[".","_",".",".",".",".",".",".",".",".",".",".",".","_",".",".",".",".",".",".",".",".",".",".",".","."]],[[7,".",".",".",".",".",".",".",".",".",".",".","_",12,".",".",".",".",".",".",".",".",".",".","."],[8,".",".",".",".",".",".",".",".",".",".",".","_",13,".",".",".",".",".",".",".",".",".",".","."],[9,".",".",".",".",7,9,7,".",".",".",".","_",14,".",".",".",".",12,14,12,".",".",".","."],[9,".",".",7,9,".",".",".",9,7,".",".","_",14,".",".",12,14,".",".",".",14,12,".","."],[7,7,10,".",".",".",".",".",".",".",10,7,"_",12,12,15,".",".",".",".",".",".",".",15,12],[".",".",".",".",".",".",".",".",".",".",".",".","_",".",".",".",".",".",".",".",".",".",".",".","."]],[[5,".",".",".",".",".",".",".",".",".",".",".","_",10,".",".",".",".",".",".",".",".",".",".","."],[6,".",".",".",".",".",".",".",".",".",".",".","_",11,".",".",".",".",".",".",".",".",".",".","."],[7,".",".",".",".",5,7,5,".",".",".",".","_",12,".",".",".",".",10,12,10,".",".",".","."],[7,".",".",5,7,".",".",".",7,5,".",".","_",12,".",".",10,12,".",".",".",12,10,".","."],[5,5,8,".",".",".",".",".",".",".",8,5,"_",10,10,13,".",".",".",".",".",".",".",13,10],[".",".",".",".",".",".",".",".",".",".",".",".","_",".",".",".",".",".",".",".",".",".",".",".","."]]],"numberofstrings":6,"notes":["E","B","G","D","A","E","B"],"capo":0,"stringnotes":["E4","B3","G3","D3","A2","E2"],"comments":["Stave 1:","Stave 2:","Stave 3:","Stave 4:","Stave 5:","Stave 6:"],"timing":[["W","W","W","W","W","W","W","W","W","W","W","W","W","W","W","W","W","W","W","W","W","W","W","W","W"],["W","W","W","W","W","W","W","W","W","W","W","W",null,"W","W","W","W","W","W","W","W","W","W","W","W"],["W","W","W","W","W","W","W","W","W","W","W","W",null,"W","W","W","W","W","W","W","W","W","W","W","W"],["W",null,"W","W","W","W","W","W","W","W","W","W","W",null,"W","W","W","W","W","W","W","W","W","W","W","W"],["W","W","W","W","W","W","W","W","W","W","W","W",null,"W","W","W","W","W","W","W","W","W","W","W","W"],["W","W","W","W","W","W","W","W","W","W","W","W",null,"W","W","W","W","W","W","W","W","W","W","W","W"]],"timingvisible":false,"tabcounter":25,"stave":5,"totalstaves":6,"instrument":"6guitar","selectedtuning":"6_standard","version":"13"}

Member for

9 months 3 weeks
Submitted by briangreen335 on Wed, 2020-11-25 09:11