Cycle of 4ths Major pentatonic exercise

01234567891011121314151617181920212223
E
B
G
D
A
E
B
0 1 2 3 4 5 6 7 8 9 10 11 12 13 14 15 16 17 18 19 20 21 22 23
(/) Slide Up  (\) Slide Down  (h) Hammer On  (p) Pull Off  (b) Bend (r) Release (v) Vibrato

Stave 1:

E|-----------------------------------------------------------------------------------
B|--5--------------------------------------10----------------------------------------
G|--5--------------2--5--2-----------------10----------------7--10--7----------------
D|--5--------2--5-----------5--2-----------10---------7--10------------10--7---------
A|--3--3--5-----------------------5--3-----8---8--10--------------------------10--8--
E|-----------------------------------------------------------------------------------

Stave 2:

E|-----------------------------------------------------------------------------
B|--3--------------------------------------8-----------------------------------
G|--3--------------0--3--0-----------------8--------------5--8--5--------------
D|--3--------0--3-----------3--0-----------8--------5--8-----------8--5--------
A|--1--1--3-----------------------3--1-----6--6--8-----------------------8--6--
E|-----------------------------------------------------------------------------

Stave 3:

E|--------------------------------------------------------------------------
B|--13-------------------------------------------------6--------------------
G|--13------------------10--13--10---------------------6--------------3--6--
D|--13----------10--13--------------13--10-------------6--------3--6--------
A|--11--11--13------------------------------13--11-----4--4--6--------------
E|--------------------------------------------------------------------------

Stave 4:

E|-----------------------------------------------------------------------------------
B|--11-------------------------------------------4-----------------------------------
G|--11----------------8--11--8-------------------4--------------1--4--1--------------
D|--11---------8--11------------11--8------------4--------1--4-----------4--1--------
A|--9---9--11--------------------------11--9-----2--2--4-----------------------4--2--
E|-----------------------------------------------------------------------------------

Stave 5:

E|-----------------------------------------------------------------------------------------
B|--9--------------------------------------14----------------------------------------------
G|--9--------------6--9--6-----------------14------------------11--14--11------------------
D|--9--------6--9-----------9--6-----------14----------11--14--------------14--11----------
A|--7--7--9-----------------------9--7-----12--12--14------------------------------14--12--
E|-----------------------------------------------------------------------------------------

Stave 6:

E|-------------------------------------------------------------------------------------
B|--7--------------------------------------12------------------------------------------
G|--7--------------4--7--4-----------------12-----------------9--12--9-----------------
D|--7--------4--7-----------7--4-----------12----------9--12------------12--9----------
A|--5--5--7-----------------------7--5-----10--10--12--------------------------12--10--
E|-------------------------------------------------------------------------------------

							http://www.guitartabcreator.com
Chords

Instruments
{"strings":[[[".",".",".",".",".",".",".",".",".",".",".",".","_",".",".",".",".",".",".",".",".",".",".",".","."],[5,".",".",".",".",".",".",".",".",".",".",".","_",10,".",".",".",".",".",".",".",".",".",".","."],[5,".",".",".",".",2,5,2,".",".",".",".","_",10,".",".",".",".",7,10,7,".",".",".","."],[5,".",".",2,5,".",".",".",5,2,".",".","_",10,".",".",7,10,".",".",".",10,7,".","."],[3,3,5,".",".",".",".",".",".",".",5,3,"_",8,8,10,".",".",".",".",".",".",".",10,8],[".",".",".",".",".",".",".",".",".",".",".",".","_",".",".",".",".",".",".",".",".",".",".",".","."]],[[".",".",".",".",".",".",".",".",".",".",".",".","_",".",".",".",".",".",".",".",".",".",".",".","."],[3,".",".",".",".",".",".",".",".",".",".",".","_",8,".",".",".",".",".",".",".",".",".",".","."],[3,".",".",".",".",0,3,0,".",".",".",".","_",8,".",".",".",".",5,8,5,".",".",".","."],[3,".",".",0,3,".",".",".",3,0,".",".","_",8,".",".",5,8,".",".",".",8,5,".","."],[1,1,3,".",".",".",".",".",".",".",3,1,"_",6,6,8,".",".",".",".",".",".",".",8,6],[".",".",".",".",".",".",".",".",".",".",".",".","_",".",".",".",".",".",".",".",".",".",".",".","."]],[[".",".",".",".",".",".",".",".",".",".",".",".","_",".",".",".",".",".",".","."],[13,".",".",".",".",".",".",".",".",".",".",".","_",6,".",".",".",".",".","."],[13,".",".",".",".",10,13,10,".",".",".",".","_",6,".",".",".",".",3,6],[13,".",".",10,13,".",".",".",13,10,".",".","_",6,".",".",3,6,".","."],[11,11,13,".",".",".",".",".",".",".",13,11,"_",4,4,6,".",".",".","."],[".",".",".",".",".",".",".",".",".",".",".",".","_",".",".",".",".",".",".","."]],[[".",".",".",".",".",".",".",".",".",".",".",".","_",".",".",".",".",".",".",".",".",".",".",".","."],[11,".",".",".",".",".",".",".",".",".",".",".","_",4,".",".",".",".",".",".",".",".",".",".","."],[11,".",".",".",".",8,11,8,".",".",".",".","_",4,".",".",".",".",1,4,1,".",".",".","."],[11,".",".",8,11,".",".",".",11,8,".",".","_",4,".",".",1,4,".",".",".",4,1,".","."],[9,9,11,".",".",".",".",".",".",".",11,9,"_",2,2,4,".",".",".",".",".",".",".",4,2],[".",".",".",".",".",".",".",".",".",".",".",".","_",".",".",".",".",".",".",".",".",".",".",".","."]],[[".",".",".",".",".",".",".",".",".",".",".",".","_",".",".",".",".",".",".",".",".",".",".",".","."],[9,".",".",".",".",".",".",".",".",".",".",".","_",14,".",".",".",".",".",".",".",".",".",".","."],[9,".",".",".",".",6,9,6,".",".",".",".","_",14,".",".",".",".",11,14,11,".",".",".","."],[9,".",".",6,9,".",".",".",9,6,".",".","_",14,".",".",11,14,".",".",".",14,11,".","."],[7,7,9,".",".",".",".",".",".",".",9,7,"_",12,12,14,".",".",".",".",".",".",".",14,12],[".",".",".",".",".",".",".",".",".",".",".",".","_",".",".",".",".",".",".",".",".",".",".",".","."]],[[".",".",".",".",".",".",".",".",".",".",".",".","_",".",".",".",".",".",".",".",".",".",".",".","."],[7,".",".",".",".",".",".",".",".",".",".",".","_",12,".",".",".",".",".",".",".",".",".",".","."],[7,".",".",".",".",4,7,4,".",".",".",".","_",12,".",".",".",".",9,12,9,".",".",".","."],[7,".",".",4,7,".",".",".",7,4,".",".","_",12,".",".",9,12,".",".",".",12,9,".","."],[5,5,7,".",".",".",".",".",".",".",7,5,"_",10,10,12,".",".",".",".",".",".",".",12,10],[".",".",".",".",".",".",".",".",".",".",".",".","_",".",".",".",".",".",".",".",".",".",".",".","."]]],"numberofstrings":6,"notes":["E","B","G","D","A","E","B"],"capo":0,"stringnotes":["E4","B3","G3","D3","A2","E2"],"comments":["Stave 1:","Stave 2:","Stave 3:","Stave 4:","Stave 5:","Stave 6:"],"timing":[["W","W","W","W","W","W","W","W","W","W","W","W",null,"W","W","W","W","W","W","W","W","W","W","W","W"],["W","W","W","W","W","W","W","W","W","W","W","W",null,"W","W","W","W","W","W","W","W","W","W","W","W"],["W","W","W","W","W","W","W","W","W","W","W","W",null,"W","W","W","W","W","W","W"],["W","W","W","W","W","W","W","W","W","W","W","W",null,"W","W","W","W","W","W","W","W","W","W","W","W"],["W","W","W","W","W","W","W","W","W","W","W","W",null,"W","W","W","W","W","W","W","W","W","W","W","W"],["W","W","W","W","W","W","W","W","W","W","W","W",null,"W","W","W","W","W","W","W","W","W","W","W","W"]],"timingvisible":false,"tabcounter":25,"stave":5,"totalstaves":6,"instrument":"6guitar","selectedtuning":"6_standard","version":"13"}

Member for

9 months 3 weeks
Submitted by briangreen335 on Wed, 2020-11-25 09:20