'Crazy Train' -Ozzy Osbourne

Chords

01234567891011121314151617181920212223
E
B
G
D
A
E
B
0 1 2 3 4 5 6 7 8 9 10 11 12 13 14 15 16 17 18 19 20 21 22 23
(/) Slide Up  (\) Slide Down  (h) Hammer On  (p) Pull Off  (b) Bend (r) Release (v) Vibrato

Stave 1:

E|-----------------------------------------------------------------------------------------
B|-----------------------------------------------------------------------------------------
G|-----------------------------------------------------------------------------------------
D|-----------------------------------------------------------------------------------------
A|--------------0--0-----------------5--5-----------------0--0-----------------5--5--7--7--
E|--2--2--------------0--0--2--2-----------0--0--2--2-----------0--0--2--2-----------------

Stave 2:

E|--------------------------------------------------
B|--------------------------------------------------
G|--------------------------------------------------
D|--------------------------------------------------
A|--------4-----5-----4-----2--0-----0--2--0--------
E|--2--2-----2-----2-----2--------4-----------4--0--

Stave 3:

E|-------------------------------------------------
B|--------5--------5--------3--------2----------2--
G|--------6--------4--------2--------2----------2--
D|--------7--------6--------4--------2----------2--
A|--0--0-----0--0-----0--0-----0--0--0----------0--
E|-----------------------------------------3b4-----

Stave 4:

E|--------------------------------------------
B|--------------------------------------------
G|-----------------7-----------------------7--
D|--4-----4--------7--------4-----4--------7--
A|--4-----4--------5--------4-----4--------5--
E|--2--0--2-----------------2--0--2-----------

							http://www.guitartabcreator.com
Tab Notes
VERSE-|:A E|D A:|| CHORUS-|F#5 |D5 |F#5 |D5 |A |E |F#M |
Instruments
{"strings":[[[".",".","_","_",".",".",".",".",".",".","_",".",".",".",".",".",".","_",".",".",".",".",".",".","_",".",".",".","."],[".",".","_","_",".",".",".",".",".",".","_",".",".",".",".",".",".","_",".",".",".",".",".",".","_",".",".",".","."],[".",".","_","_",".",".",".",".",".",".","_",".",".",".",".",".",".","_",".",".",".",".",".",".","_",".",".",".","."],[".",".","_","_",".",".",".",".",".",".","_",".",".",".",".",".",".","_",".",".",".",".",".",".","_",".",".",".","."],[".",".","_","_",0,0,".",".",".",".","_",5,5,".",".",".",".","_",0,0,".",".",".",".","_",5,5,7,7],[2,2,"_","_",".",".",0,0,2,2,"_",".",".",0,0,2,2,"_",".",".",0,0,2,2,"_",".",".",".","."]],[[".",".",".",".",".",".",".",".",".",".",".",".",".",".",".","."],[".",".",".",".",".",".",".",".",".",".",".",".",".",".",".","."],[".",".",".",".",".",".",".",".",".",".",".",".",".",".",".","."],[".",".",".",".",".",".",".",".",".",".",".",".",".",".",".","."],[".",".",4,".",5,".",4,".",2,0,".",0,2,0,".","."],[2,2,".",2,".",2,".",2,".",".",4,".",".",".",4,0]],[[".",".",".",".",".",".",".",".",".",".",".",".","_",".",".",".","."],[".",".",5,".",".",5,".",".",3,".",".",2,"_",".",".",".",2],[".",".",6,".",".",4,".",".",2,".",".",2,"_",".",".",".",2],[".",".",7,".",".",6,".",".",4,".",".",2,"_",".",".",".",2],[0,0,".",0,0,".",0,0,".",0,0,0,"_",".",".",".",0],[".",".",".",".",".",".",".",".",".",".",".",".","_",3,"b",4,"."]],[[".",".",".","_","_",".","_","_",".",".",".","_","_","."],[".",".",".","_","_",".","_","_",".",".",".","_","_","."],[".",".",".","_","_",7,"_","_",".",".",".","_","_",7],[4,".",4,"_","_",7,"_","_",4,".",4,"_","_",7],[4,".",4,"_","_",5,"_","_",4,".",4,"_","_",5],[2,0,2,"_","_",".","_","_",2,0,2,"_","_","."]]],"numberofstrings":6,"notes":["E","B","G","D","A","E","B"],"capo":0,"stringnotes":["E4","B3","G3","D3","A2","E2"],"comments":["Stave 1:","Stave 2:","Stave 3:","Stave 4:"],"timing":[["W","W",null,null,"W","W","W","W","W","W",null,"W","W","W","W","W","W","W","W","W","W","W","W","W","W","W","W","W","W","W","W","W"],["W","W","W","W","W","W","W","W","W","W","W","W","W","W","W","W"],["W","W","W","W","W","W","W","W","W","W","W","W",null,"W",null,"W","W","W","W","W","W","W","W","W","W","W","W","W"],["W","W","W",null,null,"W",null,null,"W","W","W",null,null,"W"]],"timingvisible":false,"tabcounter":13,"stave":3,"totalstaves":4,"instrument":"6guitar","selectedtuning":"6_standard","version":"13"}

Member for

8 months 1 week
Submitted by briangreen335 on Wed, 2020-10-14 14:04