'Come As You Are' -Nirvana

Chords

01234567891011121314151617181920212223
E
B
G
D
A
E
B
0 1 2 3 4 5 6 7 8 9 10 11 12 13 14 15 16 17 18 19 20 21 22 23
(/) Slide Up  (\) Slide Down  (h) Hammer On  (p) Pull Off  (b) Bend (r) Release (v) Vibrato

Stave 1:

E|-----------------------------------------------------------------------------------------------
B|-----------------------------------------------------------------------------------------------
G|-----------------------------------------------------------------------------------------------
D|-----------------------------------------------------------------------------------------------
A|-----------------0-----0--------------2-----------2--------------0-----0--------------2--------
E|--0--0--1--2--------2-----2--2--1--0-----0--0--------0--1--2--------2-----2--2--1--0-----0--0--

Stave 2:

E|-----------------------------------------------------------------------------------------------
B|-----------------------------------------------------------------------------------------------
G|-----------------------------------------------------------------------------------------------
D|-----------------------------------------------------------------------------------------------
A|--2--------------0-----0--------------2-----------2--------------0-----0--------------2--------
E|-----0--1--2--------2-----2--2--1--0-----0--0--------0--1--2--------2-----2--2--1--0-----0--0--

							http://www.guitartabcreator.com
Instruments
{"strings":[[[".",".",".",".","_",".",".",".",".",".",".",".",".",".",".","_",".",".",".",".","_",".",".",".",".",".",".",".",".",".","."],[".",".",".",".","_",".",".",".",".",".",".",".",".",".",".","_",".",".",".",".","_",".",".",".",".",".",".",".",".",".","."],[".",".",".",".","_",".",".",".",".",".",".",".",".",".",".","_",".",".",".",".","_",".",".",".",".",".",".",".",".",".","."],[".",".",".",".","_",".",".",".",".",".",".",".",".",".",".","_",".",".",".",".","_",".",".",".",".",".",".",".",".",".","."],[".",".",".",".","_",0,".",0,".",".",".",".",2,".",".","_",2,".",".",".","_",0,".",0,".",".",".",".",2,".","."],[0,0,1,2,"_",".",2,".",2,2,1,0,".",0,0,"_",".",0,1,2,"_",".",2,".",2,2,1,0,".",0,0]],[[".",".",".",".","_",".",".",".",".",".",".",".",".",".",".","_",".",".",".",".","_",".",".",".",".",".",".",".",".",".","."],[".",".",".",".","_",".",".",".",".",".",".",".",".",".",".","_",".",".",".",".","_",".",".",".",".",".",".",".",".",".","."],[".",".",".",".","_",".",".",".",".",".",".",".",".",".",".","_",".",".",".",".","_",".",".",".",".",".",".",".",".",".","."],[".",".",".",".","_",".",".",".",".",".",".",".",".",".",".","_",".",".",".",".","_",".",".",".",".",".",".",".",".",".","."],[2,".",".",".","_",0,".",0,".",".",".",".",2,".",".","_",2,".",".",".","_",0,".",0,".",".",".",".",2,".","."],[".",0,1,2,"_",".",2,".",2,2,1,0,".",0,0,"_",".",0,1,2,"_",".",2,".",2,2,1,0,".",0,0]]],"numberofstrings":6,"notes":["E","B","G","D","A","E","B"],"capo":0,"stringnotes":["E4","B3","G3","D3","A2","E2"],"comments":["Stave 1:","Stave 2:"],"timing":[["W","W","W","W",null,"W","W","W","W","W","W","W","W","W","W",null,"W","W","W","W",null,"W","W","W","W","W","W","W","W","W","W"],["W","W","W","W",null,"W","W","W","W","W","W","W","W","W","W",null,"W","W","W","W",null,"W","W","W","W","W","W","W","W","W","W"]],"timingvisible":false,"tabcounter":31,"stave":1,"totalstaves":2,"instrument":"6guitar","selectedtuning":"6_standard","version":"13"}

Member for

8 months 1 week
Submitted by briangreen335 on Wed, 2020-10-28 13:47