C major scale and intervals

Chords

01234567891011121314151617181920212223
E
B
G
D
A
E
B
0 1 2 3 4 5 6 7 8 9 10 11 12 13 14 15 16 17 18 19 20 21 22 23
(/) Slide Up  (\) Slide Down  (h) Hammer On  (p) Pull Off  (b) Bend (r) Release (v) Vibrato

Stave 1:

E|-----------------------------------------------------
B|-----------------------------------------------------
G|-----------------2--4--5-----5--4--2-----------------
D|--------2--3--5-----------------------5--3--2--------
A|--3--5-----------------------------------------5--3--
E|-----------------------------------------------------

Stave 2:

E|-----------------------------------------------------------------------------------
B|-----------------------------------------------------------------------------------
G|-----------------------------------------------------2-----------4-----------5-----
D|-----------------2-----------3-----------5-----------------------------------------
A|--3--5--3-----3-----3-----3-----3-----3-----3-----3-----3-----3-----3-----3-----3--
E|-----------------------------------------------------------------------------------

							http://www.guitartabcreator.com
Instruments
{"strings":[[[".",".",".",".",".",".",".",".","_",".",".",".",".",".",".",".","."],[".",".",".",".",".",".",".",".","_",".",".",".",".",".",".",".","."],[".",".",".",".",".",2,4,5,"_",5,4,2,".",".",".",".","."],[".",".",2,3,5,".",".",".","_",".",".",".",5,3,2,".","."],[3,5,".",".",".",".",".",".","_",".",".",".",".",".",".",5,3],[".",".",".",".",".",".",".",".","_",".",".",".",".",".",".",".","."]],[[".",".",".","_",".",".",".","_",".",".",".","_",".",".",".","_",".",".",".","_",".",".",".","_",".",".","."],[".",".",".","_",".",".",".","_",".",".",".","_",".",".",".","_",".",".",".","_",".",".",".","_",".",".","."],[".",".",".","_",".",".",".","_",".",".",".","_",".",".",".","_",".",2,".","_",".",4,".","_",".",5,"."],[".",".",".","_",".",2,".","_",".",3,".","_",".",5,".","_",".",".",".","_",".",".",".","_",".",".","."],[3,5,3,"_",3,".",3,"_",3,".",3,"_",3,".",3,"_",3,".",3,"_",3,".",3,"_",3,".",3],[".",".",".","_",".",".",".","_",".",".",".","_",".",".",".","_",".",".",".","_",".",".",".","_",".",".","."]]],"numberofstrings":6,"notes":["E","B","G","D","A","E","B"],"capo":0,"stringnotes":["E4","B3","G3","D3","A2","E2"],"comments":["Stave 1:","Stave 2:"],"timing":[["W","W","W","W","W","W","W","W","W","W","W","W","W","W","W","W","W"],["W","W","W",null,"W","W","W",null,"W","W","W",null,"W","W","W",null,"W","W","W",null,"W","W","W",null,"W","W","W"]],"timingvisible":false,"tabcounter":27,"stave":1,"totalstaves":2,"instrument":"6guitar","selectedtuning":"6_standard","version":"13"}

Member for

8 months 1 week
Submitted by briangreen335 on Wed, 2020-10-28 15:47