'Beat It' -Michael Jackson (melody Eb)

01234567891011121314151617181920212223
E
B
G
D
A
E
B
0 1 2 3 4 5 6 7 8 9 10 11 12 13 14 15 16 17 18 19 20 21 22 23
(/) Slide Up  (\) Slide Down  (h) Hammer On  (p) Pull Off  (b) Bend (r) Release (v) Vibrato

Stave 1:

E|--6--6--6--6--6--6--6--9--6-----6-----6-----6--6--6--6--6--------------6-----
B|-----------------------------9-----------9-----------------9--7--9--7--------
G|-----------------------------------------------------------------------------
D|-----------------------------------------------------------------------------
A|-----------------------------------------------------------------------------
E|-----------------------------------------------------------------------------

Stave 2:

E|--------------------------------------------------------------
B|--9--9--7--------------------6--------------7-----------6-----
G|-----------8--8--8-----8--8-----8--6--6--8-----8-----8-----6--
D|--------------------------------------------------------------
A|--------------------------------------------------------------
E|--------------------------------------------------------------

Stave 3:

E|--6--6--6--6--6--6--6--9--6-----6-----6-----6--6--6--6--6--------------6-----
B|-----------------------------9-----------9-----------------9--7--9--7--------
G|-----------------------------------------------------------------------------
D|-----------------------------------------------------------------------------
A|-----------------------------------------------------------------------------
E|-----------------------------------------------------------------------------

Stave 4:

E|-----------------------------------------------------6--6--9--6-----6-----
B|--9--9--7--------------------6--------------7--------------------9-----9--
G|-----------8--8--8-----8--8-----8--6--6--8-----8--------------------------
D|--------------------------------------------------------------------------
A|--------------------------------------------------------------------------
E|--------------------------------------------------------------------------

Stave 5:

E|--6--6--------6--6--------6--6--6--6--9--6--9--6-----------------------------------
B|-----------------------------------------------------9--7--9--7--9-----9--7--9--7--
G|-----------------------------------------------------------------------------------
D|-----------------------------------------------------------------------------------
A|-----------------------------------------------------------------------------------
E|-----------------------------------------------------------------------------------

Stave 6:

E|--------------------------------------
B|--9--7--9--7--9--9--7--9--7--9--7-----
G|-----------------------------------8--
D|--------------------------------------
A|--------------------------------------
E|--------------------------------------

							http://www.guitartabcreator.com
Chords

Instruments
{"strings":[[[6,6,6,6,6,6,6,9,6,".",6,"_",6,".",6,6,6,6,6,".",".",".",".",6,"_"],[".",".",".",".",".",".",".",".",".",9,".","_",".",9,".",".",".",".",".",9,7,9,7,".","_"],[".",".",".",".",".",".",".",".",".",".",".","_",".",".",".",".",".",".",".",".",".",".",".",".","_"],[".",".",".",".",".",".",".",".",".",".",".","_",".",".",".",".",".",".",".",".",".",".",".",".","_"],[".",".",".",".",".",".",".",".",".",".",".","_",".",".",".",".",".",".",".",".",".",".",".",".","_"],[".",".",".",".",".",".",".",".",".",".",".","_",".",".",".",".",".",".",".",".",".",".",".",".","_"]],[[".",".",".",".",".",".","_",".",".",".",".",".",".",".",".",".","_",".",".","."],[9,9,7,".",".",".","_",".",".",6,".",".",".",".",7,".","_",".",6,"."],[".",".",".",8,8,8,"_",8,8,".",8,6,6,8,".",8,"_",8,".",6],[".",".",".",".",".",".","_",".",".",".",".",".",".",".",".",".","_",".",".","."],[".",".",".",".",".",".","_",".",".",".",".",".",".",".",".",".","_",".",".","."],[".",".",".",".",".",".","_",".",".",".",".",".",".",".",".",".","_",".",".","."]],[[6,6,6,6,6,6,6,9,6,".",6,"_",6,".",6,6,6,6,6,".",".",".",".",6,"_"],[".",".",".",".",".",".",".",".",".",9,".","_",".",9,".",".",".",".",".",9,7,9,7,".","_"],[".",".",".",".",".",".",".",".",".",".",".","_",".",".",".",".",".",".",".",".",".",".",".",".","_"],[".",".",".",".",".",".",".",".",".",".",".","_",".",".",".",".",".",".",".",".",".",".",".",".","_"],[".",".",".",".",".",".",".",".",".",".",".","_",".",".",".",".",".",".",".",".",".",".",".",".","_"],[".",".",".",".",".",".",".",".",".",".",".","_",".",".",".",".",".",".",".",".",".",".",".",".","_"]],[[".",".",".",".",".",".","_",".",".",".",".",".",".",".",".",".","_",6,6,9,6,".",6,"."],[9,9,7,".",".",".","_",".",".",6,".",".",".",".",7,".","_",".",".",".",".",9,".",9],[".",".",".",8,8,8,"_",8,8,".",8,6,6,8,".",8,"_",".",".",".",".",".",".","."],[".",".",".",".",".",".","_",".",".",".",".",".",".",".",".",".","_",".",".",".",".",".",".","."],[".",".",".",".",".",".","_",".",".",".",".",".",".",".",".",".","_",".",".",".",".",".",".","."],[".",".",".",".",".",".","_",".",".",".",".",".",".",".",".",".","_",".",".",".",".",".",".","."]],[[6,6,"_","_",6,6,"_","_",6,6,6,6,9,6,9,6,"_",".",".",".",".",".","_",".",".",".","."],[".",".","_","_",".",".","_","_",".",".",".",".",".",".",".",".","_",9,7,9,7,9,"_",9,7,9,7],[".",".","_","_",".",".","_","_",".",".",".",".",".",".",".",".","_",".",".",".",".",".","_",".",".",".","."],[".",".","_","_",".",".","_","_",".",".",".",".",".",".",".",".","_",".",".",".",".",".","_",".",".",".","."],[".",".","_","_",".",".","_","_",".",".",".",".",".",".",".",".","_",".",".",".",".",".","_",".",".",".","."],[".",".","_","_",".",".","_","_",".",".",".",".",".",".",".",".","_",".",".",".",".",".","_",".",".",".","."]],[[".",".",".",".",".",".",".",".",".",".",".","."],[9,7,9,7,9,9,7,9,7,9,7,"."],[".",".",".",".",".",".",".",".",".",".",".",8],[".",".",".",".",".",".",".",".",".",".",".","."],[".",".",".",".",".",".",".",".",".",".",".","."],[".",".",".",".",".",".",".",".",".",".",".","."]]],"numberofstrings":6,"notes":["E","B","G","D","A","E","B"],"capo":0,"stringnotes":["E4","B3","G3","D3","A2","E2"],"comments":["Stave 1:","Stave 2:","Stave 3:","Stave 4:","Stave 5:","Stave 6:"],"timing":[["W","W","W","W","W","W","W","W","W","W","W",null,"W","W","W","W","W","W","W","W","W","W","W","W"],["W","W","W","W","W","W",null,"W","W","W","W","W","W","W","W","W",null,"W","W","W"],["W","W","W","W","W","W","W","W","W","W","W",null,"W","W","W","W","W","W","W","W","W","W","W","W"],["W","W","W","W","W","W",null,"W","W","W","W","W","W","W","W","W","W","W","W","W","W","W","W","W","W",null,null,"W","W"],["W","W",null,null,"W","W",null,null,"W","W","W","W","W","W","W","W","W","W","W","W","W","W",null,"W","W","W","W"],["W","W","W","W","W","W","W","W","W","W","W","W"]],"timingvisible":false,"tabcounter":24,"stave":3,"totalstaves":6,"instrument":"6guitar","selectedtuning":"6_standard","version":"13"}

Member for

11 months 2 weeks
Submitted by briangreen335 on Wed, 2020-12-30 14:09