'Back In Black' -ACDC

01234567891011121314151617181920212223
E
B
G
D
A
E
B
0 1 2 3 4 5 6 7 8 9 10 11 12 13 14 15 16 17 18 19 20 21 22 23
(/) Slide Up  (\) Slide Down  (h) Hammer On  (p) Pull Off  (b) Bend (r) Release (v) Vibrato

Stave 1:

E|--------------------------------3--0------------------
B|--------3--3--3-----------------------3--0------------
G|--------2--2--2-----2--2--2-----------------2b3--2p0--
D|--2-----0--0--0-----2--2--2---------------------------
A|--2-----------------0--0--0---------------------------
E|--0---------------------------------------------------

Stave 2:

E|--------------------------------------------------------
B|--------3--3--3-----------------------------------------
G|--------2--2--2--------2--2--2--------------------------
D|--2-----0--0--0--------2--2--2--------------------------
A|--2--------------------0--0--0--2-----2-----2-----2-----
E|--0--------------------------------4-----5-----6-----7--

Stave 3:

E|-----------------------------------------------------------------------
B|--------------------------------------3--3--------------3--3-----------
G|--2-----4--2--4-----2-----4--2--4-----0--2--2-----2-----0--2--2-----2--
D|--2--2--4--2--4-----2--2--4--2--4-----0--0--2-----2-----0--0--2-----2--
A|--0--2--2--0--2-----0--2--2--0--2-----------0-----0-----------0-----0--
E|-----0-----------------0--------------3--------3--------3--------3-----

Stave 4:

E|--------------------------------------------------------
B|-----------------------------------3--3--3--3--3--3--3--
G|--2-----4--2--4-----2-----4--2--4--0--0--0--0--2--2--2--
D|--2--2--4--2--4-----2--2--4--2--4--0--0--0--0--0--0--0--
A|--0--2--2--0--2-----0--2--2--0--2-----------------------
E|-----0-----------------0-----------3--3--3--3-----------

							http://www.guitartabcreator.com
Chords

Instruments
{"strings":[[[".","_",".",".",".","_",".",".",".","_",3,0,".",".",".",".",".",".",".","."],[".","_",3,3,3,"_",".",".",".","_",".",".",3,0,".",".",".",".",".","."],[".","_",2,2,2,"_",2,2,2,"_",".",".",".",".",2,"b",3,2,"p",0],[2,"_",0,0,0,"_",2,2,2,"_",".",".",".",".",".",".",".",".",".","."],[2,"_",".",".",".","_",0,0,0,"_",".",".",".",".",".",".",".",".",".","."],[0,"_",".",".",".","_",".",".",".","_",".",".",".",".",".",".",".",".",".","."]],[[".","_",".",".",".","_","_",".",".",".",".",".",".",".",".",".",".","."],[".","_",3,3,3,"_","_",".",".",".",".",".",".",".",".",".",".","."],[".","_",2,2,2,"_","_",2,2,2,".",".",".",".",".",".",".","."],[2,"_",0,0,0,"_","_",2,2,2,".",".",".",".",".",".",".","."],[2,"_",".",".",".","_","_",0,0,0,2,".",2,".",2,".",2,"."],[0,"_",".",".",".","_","_",".",".",".",".",4,".",5,".",6,".",7]],[[".",".",".",".",".","_",".",".",".",".",".","_",".",".",".",".",".","_",".",".",".",".","."],[".",".",".",".",".","_",".",".",".",".",".","_",3,3,".",".",".","_",3,3,".",".","."],[2,".",4,2,4,"_",2,".",4,2,4,"_",0,2,2,".",2,"_",0,2,2,".",2],[2,2,4,2,4,"_",2,2,4,2,4,"_",0,0,2,".",2,"_",0,0,2,".",2],[0,2,2,0,2,"_",0,2,2,0,2,"_",".",".",0,".",0,"_",".",".",0,".",0],[".",0,".",".",".","_",".",0,".",".",".","_",3,".",".",3,".","_",3,".",".",3,"."]],[[".",".",".",".",".","_",".",".",".",".",".",".",".",".",".",".",".","."],[".",".",".",".",".","_",".",".",".",".",".",3,3,3,3,3,3,3],[2,".",4,2,4,"_",2,".",4,2,4,0,0,0,0,2,2,2],[2,2,4,2,4,"_",2,2,4,2,4,0,0,0,0,0,0,0],[0,2,2,0,2,"_",0,2,2,0,2,".",".",".",".",".",".","."],[".",0,".",".",".","_",".",0,".",".",".",3,3,3,3,".",".","."]]],"numberofstrings":6,"notes":["E","B","G","D","A","E","B"],"capo":0,"stringnotes":["E4","B3","G3","D3","A2","E2"],"comments":["Stave 1:","Stave 2:","Stave 3:","Stave 4:"],"timing":[["W",null,"W","W","W",null,"W","W","W",null,"W","W","W","W","W",null,"W","W",null,"W"],["W",null,"W","W","W",null,null,"W","W","W","W","W","W","W","W","W","W","W"],["W","W","W","W","W",null,"W","W","W","W","W",null,"W","W","W","W","W",null,"W","W","W","W","W"],["W","W","W","W","W",null,"W","W","W","W","W","W","W","W","W","W","W","W"]],"timingvisible":false,"tabcounter":17,"stave":3,"totalstaves":4,"instrument":"6guitar","selectedtuning":"6_standard","version":"13"}

Member for

9 months 3 weeks
Submitted by briangreen335 on Mon, 2020-11-23 15:56