'Auld Lang Syne' -Chord Melody (key of C)

01234567891011121314151617181920212223
E
B
G
D
A
E
B
0 1 2 3 4 5 6 7 8 9 10 11 12 13 14 15 16 17 18 19 20 21 22 23
(/) Slide Up  (\) Slide Down  (h) Hammer On  (p) Pull Off  (b) Bend (r) Release (v) Vibrato

Stave 1:

E|--------------------0--------------0-----------0--3--5-----
B|-----1-----0--1--------3-----1--3-----1-----1--------6-----
G|--0--0-----------------0--------------0--------------5-----
D|-----2-----------------3--------------2--------------7-----
A|-----3-----------------2--------------3--------------8-----
E|-----------------------------------------------------------

Stave 2:

E|--5--3-----------------------------0--------------------------
B|--6--5-----5--5-----3-----1--3--------3--1--------------1-----
G|--5--5-----------5--0--------------------2-----2--2--0--0-----
D|--7--5--------------3--------------------2--------3--0--2-----
A|--8-----------------2--------------------0--------3--2--3-----
E|--------------------------------------------------------------

							http://www.guitartabcreator.com
Chords

Instruments
{"strings":[[[".",".","_",".",".","_",0,".","_",".",".",0,".","_",".",0,3,5,"_"],[".",1,"_",0,1,"_",".",3,"_",1,3,".",1,"_",1,".",".",6,"_"],[0,0,"_",".",".","_",".",0,"_",".",".",".",0,"_",".",".",".",5,"_"],[".",2,"_",".",".","_",".",3,"_",".",".",".",2,"_",".",".",".",7,"_"],[".",3,"_",".",".","_",".",2,"_",".",".",".",3,"_",".",".",".",8,"_"],[".",".","_",".",".","_",".",".","_",".",".",".",".","_",".",".",".",".","_"]],[[5,3,"_",".",".",".",".","_",".",".","_",0,".",".","_",".",".",".",".","_"],[6,5,"_",5,5,".",3,"_",1,3,"_",".",3,1,"_",".",".",".",1,"_"],[5,5,"_",".",".",5,0,"_",".",".","_",".",".",2,"_",2,2,0,0,"_"],[7,5,"_",".",".",".",3,"_",".",".","_",".",".",2,"_",".",3,0,2,"_"],[8,".","_",".",".",".",2,"_",".",".","_",".",".",0,"_",".",3,2,3,"_"],[".",".","_",".",".",".",".","_",".",".","_",".",".",".","_",".",".",".",".","_"]]],"numberofstrings":6,"notes":["E","B","G","D","A","E","B"],"capo":0,"stringnotes":["E4","B3","G3","D3","A2","E2"],"comments":["Stave 1:","Stave 2:"],"timing":[["W","W",null,"W","W",null,"W","W",null,"W","W","W","W","W","W","W","W","W","W"],["W","W",null,"W","W","W","W",null,"W","W",null,"W","W","W",null,"W","W","W","W"]],"timingvisible":false,"tabcounter":19,"stave":0,"totalstaves":2,"instrument":"6guitar","selectedtuning":"6_standard","version":"13"}

Member for

11 months 2 weeks
Submitted by briangreen335 on Mon, 2020-12-28 14:58