'Adam's Family Theme'

Chords

01234567891011121314151617181920212223
E
B
G
D
A
E
B
0 1 2 3 4 5 6 7 8 9 10 11 12 13 14 15 16 17 18 19 20 21 22 23
(/) Slide Up  (\) Slide Down  (h) Hammer On  (p) Pull Off  (b) Bend (r) Release (v) Vibrato

Stave 1:

E|-----------------|--|--------------------|--|--------------------------------------|--|--
B|-----------------|--|--------------------|--|--------------------------------------|--|--
G|-----------------|--|--------------------|--|--------------------------------------|--|--
D|-----------------|--|--------------------|--|--------------------------------------|--|--
A|--------0--1-----|--|--------0--2--3-----|--|-----0--2--3-----0--2--3--------0--1--|--|--
E|--1--3-----------|--|-----3--------------|--|--3-----------3-----------1--3--------|--|--

Stave 2:

E|-----------------------------------------------------------------------------------
B|--------0-----------------------------------------0--------------------------------
G|-----0-----0--------2--0-----2-----------0-----0-----0-----------0--------------0--
D|--0-----------2-----------4-----4--0--------0-----------2-----2-----4--0--2--4-----
A|-----------------3--------------------2--------------------3-----------------------
E|-----------------------------------------------------------------------------------

Stave 3:

E|-----------------------------------------
B|--------0--------------------------------
G|-----0-----0-----------0--------------0--
D|--0-----------2-----2-----4--0--2--4-----
A|-----------------3-----------------------
E|-----------------------------------------

							http://www.guitartabcreator.com
Instruments
{"strings":[[[".",".",".",".","_","|","|","_",".",".",".",".","_","|","|",".",".",".",".",".",".",".",".",".",".",".",".","|","|"],[".",".",".",".","_","|","|","_",".",".",".",".","_","|","|",".",".",".",".",".",".",".",".",".",".",".",".","|","|"],[".",".",".",".","_","|","|","_",".",".",".",".","_","|","|",".",".",".",".",".",".",".",".",".",".",".",".","|","|"],[".",".",".",".","_","|","|","_",".",".",".",".","_","|","|",".",".",".",".",".",".",".",".",".",".",".",".","|","|"],[".",".",0,1,"_","|","|","_",".",0,2,3,"_","|","|",".",0,2,3,".",0,2,3,".",".",0,1,"|","|"],[1,3,".",".","_","|","|","_",3,".",".",".","_","|","|",3,".",".",".",3,".",".",".",1,3,".",".","|","|"]],[[".",".",".",".",".",".",".",".",".",".",".",".",".",".",".",".",".",".",".",".",".",".",".",".",".",".","."],[".",".",0,".",".",".",".",".",".",".",".",".",".",".",".",".",0,".",".",".",".",".",".",".",".",".","."],[".",0,".",0,".",".",2,0,".",2,".",".",".",0,".",0,".",0,".",".",".",0,".",".",".",".",0],[0,".",".",".",2,".",".",".",4,".",4,0,".",".",0,".",".",".",2,".",2,".",4,0,2,4,"."],[".",".",".",".",".",3,".",".",".",".",".",".",2,".",".",".",".",".",".",3,".",".",".",".",".",".","."],[".",".",".",".",".",".",".",".",".",".",".",".",".",".",".",".",".",".",".",".",".",".",".",".",".",".","."]],[[".",".",".",".",".",".",".",".",".",".",".",".","."],[".",".",0,".",".",".",".",".",".",".",".",".","."],[".",0,".",0,".",".",".",0,".",".",".",".",0],[0,".",".",".",2,".",2,".",4,0,2,4,"."],[".",".",".",".",".",3,".",".",".",".",".",".","."],[".",".",".",".",".",".",".",".",".",".",".",".","."]]],"numberofstrings":6,"notes":["E","B","G","D","A","E","B"],"capo":0,"stringnotes":["E4","B3","G3","D3","A2","E2"],"comments":["Stave 1:","Stave 2:","Stave 3:"],"timing":[["W","W","W","W",null,null,null,null,"W","W","W","W",null,null,null,"W","W","W","W","W","W","W","W","W","W","W","W"],["W","W","W","W","W","W","W","W","W","W","W","W","W","W","W","W","W","W","W","W","W","W","W","W","W","W","W"],["W","W","W","W","W","W","W","W","W","W","W","W","W"]],"timingvisible":false,"tabcounter":27,"stave":1,"totalstaves":3,"instrument":"6guitar","selectedtuning":"6_standard","version":"13"}

Member for

8 months 1 week
Submitted by briangreen335 on Mon, 2020-10-12 14:43