'The 1' -Taylor Swift

Chords

01234567891011121314151617181920212223
E
B
G
D
A
E
B
0 1 2 3 4 5 6 7 8 9 10 11 12 13 14 15 16 17 18 19 20 21 22 23
(/) Slide Up  (\) Slide Down  (h) Hammer On  (p) Pull Off  (b) Bend (r) Release (v) Vibrato

Stave 1:

E|--0--------3--------|--
B|--1--------3--------|--
G|--0--------0--------|--
D|--2--------0--------|--
A|--------------------|--
E|--------------------|--

Stave 2:

E|--0--------3--------|--
B|--1--------3--------|--
G|--2--------0--------|--
D|--------------------|--
A|--0--------2--------|--
E|--------------------|--

Stave 3:

E|--0--------3--------|--
B|--0--------3--------|--
G|--0--------0--------|--
D|--------------------|--
A|--------------------|--
E|--0--------3--------|--

							http://www.guitartabcreator.com
Tab Notes
play on capo 5 Stave 1- |F C| (|C G| relative to capo) Stave 2- |Dm C| (|Am G| relative to capo) Stave 3- |Am C| (|Em G| relative to capo)
Instruments
{"strings":[[[0,"_","_",3,"_","_","|"],[1,"_","_",3,"_","_","|"],[0,"_","_",0,"_","_","|"],[2,"_","_",0,"_","_","|"],[".","_","_",".","_","_","|"],[".","_","_",".","_","_","|"]],[[0,"_","_",3,"_","_","|"],[1,"_","_",3,"_","_","|"],[2,"_","_",0,"_","_","|"],[".","_","_",".","_","_","|"],[0,"_","_",2,"_","_","|"],[".","_","_",".","_","_","|"]],[[0,"_","_",3,"_","_","|"],[0,"_","_",3,"_","_","|"],[0,"_","_",0,"_","_","|"],[".","_","_",".","_","_","|"],[".","_","_",".","_","_","|"],[0,"_","_",3,"_","_","|"]]],"numberofstrings":6,"notes":["E","B","G","D","A","E","B"],"capo":0,"stringnotes":["E4","B3","G3","D3","A2","E2"],"comments":["Stave 1:","Stave 2:","Stave 3:"],"timing":[["W",null,null,"W"],["W",null,null,"W"],["W",null,"W","W"]],"timingvisible":false,"tabcounter":7,"stave":2,"totalstaves":3,"instrument":"6guitar","selectedtuning":"6_standard","version":"13"}

Member for

6 months
Submitted by briangreen335 on Mon, 2020-08-10 07:40