Sound will begin in 5 seconds

Pray the clouds away

01234567891011121314151617181920212223
E
B
G
D
A
E
B
0 1 2 3 4 5 6 7 8 9 10 11 12 13 14 15 16 17 18 19 20 21 22 23
Song Science #1: How Pros Use 6 Chords to Write Hit Songs
(/) Slide Up  (\) Slide Down  (h) Hammer On  (p) Pull Off  (b) Bend (r) Release (v) Vibrato

(W|WW) Whole (H|HH) Half (Q|QQ) Quarter (E|EE) 8th (S|SS) 16th (T|TT) 32nd (X|XX) 64th

Stave 1:
t: E E E E E E E E E E E E E E Q E E
E|-----------------0-----------------------------------------------------------------------------------------
B|-----3-----3-----------3-----3-----0-----------------0-----------------------------------------------------
G|-----------------------------------------2-----0-----------2-----0-----2-----0-----------------------------
D|-----------------------------------------------------------------------------------2-----0-----0-----2-----
A|-----------------------------------------------------------------------------------------------------------
E|-----------------------------------------------------------------------------------------------------------

Stave 2:
t: E E E E E E E E E E E E Q E E E E
E|-----------------------0-----------------------------------------------------------------------0-----------
B|-----------------0-----------3-----0-----0-----0-----0-----------------0-----------3-----3-----------3-----
G|-----0-----2-----------------------------------------------2-----0-----------2-----------------------------
D|-----------------------------------------------------------------------------------------------------------
A|-----------------------------------------------------------------------------------------------------------
E|-----------------------------------------------------------------------------------------------------------

Stave 3:
t: E E E E E E E E E E Q E E E E E E
E|-----------------------------------------------------------------------------------------------------0-----
B|-----3-----0-----------------0-----------------------------------------------------------------0-----------
G|-----------------2-----0-----------2-----0-----2-----0-----------------------------0-----2-----------------
D|-----------------------------------------------------------2-----0-----0-----2-----------------------------
A|-----------------------------------------------------------------------------------------------------------
E|-----------------------------------------------------------------------------------------------------------

Stave 4:
t: E E E E E E E E H H E E E E E
E|-----------------------0-------------------------------------------0-----------------------
B|-----3-----0-----3-----------0-----------0-----------------3b3-----------0-----------------
G|-----------------------------------0-----------2-----0-------------------------2-----0-----
D|-------------------------------------------------------------------------------------------
A|-------------------------------------------------------------------------------------------
E|-------------------------------------------------------------------------------------------

Stave 5:
t: H E E E E H E E E E H H
E|-----------------------------------------------------------------
B|-----0b0-----------0-------------------0-------------------------
G|-------------2-----------2-----0b0-----------0-----------0b0-----
D|---------------------------------------------------2-------------
A|-----------------------------------------------------------------
E|-----------------------------------------------------------------

Stave 6:
t: H E E E E H E E E E H E E E E
E|-------------------------0---------------------------------------------------------
B|-----3b3-----0-----3-----------0b0-----3-----0-----0-------------------0-----1-----
G|---------------------------------------------------------2b2-----2-----------------
D|-----------------------------------------------------------------------------------
A|-----------------------------------------------------------------------------------
E|-----------------------------------------------------------------------------------

Stave 7:
t: H E H E E E E E H E E E E
E|---------------------------0-------------------------------------------------
B|-----3b3-----------3b3-----------0-----------------0b0-----------0-----------
G|---------------------------------------2-----0-------------2-----------2-----
D|-----------------------------------------------------------------------------
A|-----------------------------------------------------------------------------
E|-----------------------------------------------------------------------------

Stave 8:
t: H E E E E H E H E E E E
E|--------------------------------------------------------------------0-----
B|-------------0----------------------------------3b3-----0-----3-----------
G|-----0b0-----------0-----------0b0----------------------------------------
D|-------------------------2------------------------------------------------
A|--------------------------------------------------------------------------
E|--------------------------------------------------------------------------

Stave 9:
t: H E E E E E H E E E E H
E|-------------0-------------------------------------------------------
B|-----3b3-----------0-----------------0b0-----3-----0-----------------
G|-------------------------2-----0-------------------------2-----0-----
D|---------------------------------------------------------------------
A|---------------------------------------------------------------------
E|---------------------------------------------------------------------

http://www.guitartabcreator.com
Guitar Tab Creator is intended to store guitar tab created through the tool. It currently does not support in-line text editing. Any text you place in here will be lost. If you need to comment on your tab, please use the "Tab Notes" section located below.