Sound will begin in 5 seconds

To Zanarkand

01234567891011121314151617181920212223
E
B
G
D
A
E
B
0 1 2 3 4 5 6 7 8 9 10 11 12 13 14 15 16 17 18 19 20 21 22 23
Song Science #1: How Pros Use 6 Chords to Write Hit Songs
(/) Slide Up  (\) Slide Down  (h) Hammer On  (p) Pull Off  (b) Bend (r) Release (v) Vibrato

Stave 1:

E|--0-----------0--2--3-----------------0--2-----------------------------------------
B|-----------0-----------3-----------3--------0--0--0--0-----3--------------------0--
G|--------0-----------------------2-----------------------2--------------------------
D|-----2--------------------0--4--------------------------------4--------------4-----
A|--------------------------------------------------------------------2--4--5--------
E|-----------------------------------------------------------------2-----------------

Stave 2:

E|--0--0--0--0-----3--------------------------------5--8--
B|--------------3-----1-----------------6-----6--8--------
G|-----------------------------0--2--5-----5--------------
D|--------------------------3-----------------------------
A|-----------------------3--------------------------------
E|--------------------------------------------------------

Stave 3:

E|--0-----0--2--3--2--0-----0-----------0-----0--2--3--2--3--5--3--5--7--
B|-----0-----------------3-----3--1--0-----0-----------------------------
G|-----------------------------------------------------------------------
D|-----------------------------------------------------------------------
A|-----------------------------------------------------------------------
E|-----------------------------------------------------------------------

Stave 4:

E|--0-----0--2--3--2--0-----0--------------------------------------------------
B|-----0-----------------3-----3--1--0-----------------------------------------
G|--------------------------------------0--2--4--4--4--4--2--7-----------------
D|--------------------------------------------------------------5--5--4--------
A|-----------------------------------------------------------------------5--7--
E|-----------------------------------------------------------------------------

Stave 5:

E|--------------------3--3-----2--2-----------------
B|-----5--5--3--------------------------5--5--4-----
G|--4-----------5--4--------4--------2-----------4--
D|--------------------------------------------------
A|--------------------------------------------------
E|--------------------------------------------------

Stave 6:

E|-----------------------------5--5--4--------------------------
B|--------------7--7--5-----------------5--------7--------------
G|--4-----4--------------7--6--------------6--4-----2-----2--4--
D|-----4-----4-----------------------------------------4--------
A|--------------------------------------------------------------
E|--------------------------------------------------------------

http://www.guitartabcreator.com
Guitar Tab Creator is intended to store guitar tab created through the tool. It currently does not support in-line text editing. Any text you place in here will be lost. If you need to comment on your tab, please use the "Tab Notes" section located below.