Sound will begin in 5 seconds

Bump of chicken zero

01234567891011121314151617181920212223
E
B
G
D
A
E
B
0 1 2 3 4 5 6 7 8 9 10 11 12 13 14 15 16 17 18 19 20 21 22 23
Song Science #1: How Pros Use 6 Chords to Write Hit Songs
(/) Slide Up  (\) Slide Down  (h) Hammer On  (p) Pull Off  (b) Bend (r) Release (v) Vibrato

Stave 1:

E|--0--5--------5--3-----5--5--3--5--
B|--------3--2--------2--------------
G|-----------------------------------
D|-----------------------------------
A|-----------------------------------
E|-----------------------------------

Stave 2:

E|--0--5-----------------------------
B|--------2--3--5--3--5-----3--5--2--
G|-----------------------2-----------
D|-----------------------------------
A|-----------------------------------
E|-----------------------------------

Stave 3:

E|--0--5--5--------------3--5--5--5--3--5--
B|--------------5--3--2--------------------
G|-----------2-----------------------------
D|-----------------------------------------
A|-----------------------------------------
E|-----------------------------------------

Stave 4:

E|--5-----------------------------5--5--
B|-----2--3--3--3-----5--2--3--2--------
G|-----------------2--------------------
D|--------------------------------------
A|--------------------------------------
E|--------------------------------------

Stave 5:

E|--5------------------
B|-----5/7--7--5--5/7--
G|---------------------
D|---------------------
A|---------------------
E|---------------------

Stave 6:

E|--5--------------------
B|-----5/7--9h10p9--5/7--
G|-----------------------
D|-----------------------
A|-----------------------
E|-----------------------

Stave 7:

E|--5--7--8--8--10--7--7--8--5--
B|------------------------------
G|------------------------------
D|------------------------------
A|------------------------------
E|------------------------------

Stave 8:

E|--5--7--8--8--10--7--7--8--5--
B|------------------------------
G|------------------------------
D|------------------------------
A|------------------------------
E|------------------------------

Stave 9:

E|--0--5--------5--3-----5--5--3--5--
B|--------3--2--------2--------------
G|-----------------------------------
D|-----------------------------------
A|-----------------------------------
E|-----------------------------------

Stave 10:

E|--0--5-----------------------------
B|--------2--3--5--3--5-----3--5--2--
G|-----------------------2-----------
D|-----------------------------------
A|-----------------------------------
E|-----------------------------------

Stave 11:

E|--0--5--5--------------3--5--5--5--3--5--
B|--------------5--3--2--------------------
G|-----------2-----------------------------
D|-----------------------------------------
A|-----------------------------------------
E|-----------------------------------------

Stave 12:

E|--5-----------------------------5--5--
B|-----2--3--3--3-----5--2--3--2--------
G|-----------------2--------------------
D|--------------------------------------
A|--------------------------------------
E|--------------------------------------

Stave 13:

E|--5-----------------------------------------
B|-----3--------5--3--3--2--3--5--5--3--5--5--
G|--------2--2--------------------------------
D|--------------------------------------------
A|--------------------------------------------
E|--------------------------------------------

Stave 14:

E|--5--------------------------------------
B|-----3--------5--3--3--2--5--------5--5--
G|--------2--2-----------------2--2--------
D|-----------------------------------------
A|-----------------------------------------
E|-----------------------------------------

Stave 15:

E|--5-----------------------------------------
B|-----3--------5-----3--5--3--3--5--------3--
G|--------2--3-----2-----------------2--5-----
D|--------------------------------------------
A|--------------------------------------------
E|--------------------------------------------

Stave 16:

E|--3--3--5-----3--3--5--------------------3-----
B|-----------3-----------3--5-----------3-----5--
G|-----------------------------2--3--2-----------
D|-----------------------------------------------
A|-----------------------------------------------
E|-----------------------------------------------

Stave 17:

E|-----------------------------------------
B|-----------5--5-----------5--3-----5--3--
G|--2--3--5--------5--3--2--------2--------
D|-----------------------------------------
A|-----------------------------------------
E|-----------------------------------------

Stave 18:

E|--3--3--------------------------------------
B|--------5--5--3--3--------------3--5--3--2--
G|--------------------5--5--3--2--------------
D|--------------------------------------------
A|--------------------------------------------
E|--------------------------------------------

Stave 19:

E|-----------------------------------------
B|-----------5--5-----------5--3-----5--3--
G|--2--3--5--------5--3--2--------2--------
D|-----------------------------------------
A|-----------------------------------------
E|-----------------------------------------

Stave 20:

E|--3--3-----------------------------------------
B|--------5--5--3--3--------------3--5-----5--5--
G|--------------------5--5--3--2--------2--------
D|-----------------------------------------------
A|-----------------------------------------------
E|-----------------------------------------------

Stave 21:

E|-----------------------------------------------------
B|--3-----------------3-----------5--3-----5--3--2--3--
G|--------------5--5-----5--3--2--------2--------------
D|-----4--5--5-----------------------------------------
A|-----------------------------------------------------
E|-----------------------------------------------------

Stave 22:

E|--3--------------------------5--------
B|-----3--------------3--3--5-----3--3--
G|--------2--3--5--5--------------------
D|--------------------------------------
A|--------------------------------------
E|--------------------------------------

http://www.guitartabcreator.com
Guitar Tab Creator is intended to store guitar tab created through the tool. It currently does not support in-line text editing. Any text you place in here will be lost. If you need to comment on your tab, please use the "Tab Notes" section located below.