Sound will begin in 5 seconds

E Major Scale

Chords
01234567891011121314151617181920212223
E
B
G
D
A
E
B
0 1 2 3 4 5 6 7 8 9 10 11 12 13 14 15 16 17 18 19 20 21 22 23
Song Science #1: How Pros Use 6 Chords to Write Hit Songs
(/) Slide Up  (\) Slide Down  (h) Hammer On  (p) Pull Off  (b) Bend (r) Release (v) Vibrato

Stave 1:

E|--------------------------------------------0--2--4--2--0--------------------------------------------
B|--------------------------------------2--4-----------------4--2--------------------------------------
G|-----------------------------1--2--4-----------------------------4--2--1-----------------------------
D|--------------------1--2--4-----------------------------------------------4--2--1--------------------
A|-----------0--2--4-----------------------------------------------------------------4--2--0-----------
E|--0--2--4-----------------------------------------------------------------------------------4--2--0--

Stave 2:

E|-----------------------------4--5--7--5--4-----------------------------0--
B|--------------------4--5--7-----------------7--5--4--------------------5--
G|--------------4--6-----------------------------------6--4--------------4--
D|-----4--6--7-----------------------------------------------7--6--4-----6--
A|--7-----------------------------------------------------------------7--7--
E|--------------------------------------------------------------------------

Stave 3:

E|------------------------------------7------------------------------------7--
B|--------------------------7--9--10-----10--9--7--------------------------9--
G|-----------------6--8--9-------------------------9--8--6-----------------9--
D|--------6--7--9-------------------------------------------9--7--6--------9--
A|--7--9-------------------------------------------------------------9--7--7--
E|----------------------------------------------------------------------------

Stave 4:

E|-----------------------------------------------------------9--11--12--12--
B|------------------------------------------------9--10--12-------------12--
G|------------------------------------6/8--9--11------------------------13--
D|-------------------------4/6--7--9------------------------------------14--
A|-----------0--2/4--6--7-----------------------------------------------14--
E|--0--2--4-------------------------------------------------------------12--

Stave 5:

E|--0--0--7--12--
B|--0--5--9--12--
G|--1--4--9--13--
D|--2--6--9--14--
A|--2--7--7--14--
E|--0--------12--

http://www.guitartabcreator.com
Guitar Tab Creator is intended to store guitar tab created through the tool. It currently does not support in-line text editing. Any text you place in here will be lost. If you need to comment on your tab, please use the "Tab Notes" section located below.