Sound will begin in 5 seconds

Chevrolet Pt 2

01234567891011121314151617181920212223
E
B
G
D
A
E
B
0 1 2 3 4 5 6 7 8 9 10 11 12 13 14 15 16 17 18 19 20 21 22 23
Song Science #1: How Pros Use 6 Chords to Write Hit Songs
(/) Slide Up  (\) Slide Down  (h) Hammer On  (p) Pull Off  (b) Bend (r) Release (v) Vibrato

Stave 1:

E|--------------------------------------------------------------------------------------------------
B|--------------------------------------------------------------------------------------------------
G|--------------------------------------------------------------------------------------------------
D|-----------------------2-----------------------2-----------------------2-----------------------2--
A|-----------2--0--3--4--------------2--0--3--4--------------2--0--3--4--------------2--0--3--4-----
E|--0--3--4-----------------0--3--4-----------------0--3--4-----------------0--3--4-----------------

Stave 2:

E|--------------------------------------------------------------------------------------------------
B|--------------------------------------------------------------------------------------------------
G|--------------------------------------------------------------------------------------------------
D|-----------------------2-----------------------2-----------------------2-----------------------2--
A|-----------2--0--3--4--------------2--0--3--4--------------2--0--3--4--------------2--0--3--4-----
E|--0--3--4-----------------0--3--4-----------------0--3--4-----------------0--3--4-----------------

Stave 3:

E|--2-4\2--------x--2-4\2--------x--------------------x--x-------------------------------x--x--------------------
B|---------------2---------------2--------------10\8--3--3-------------------------------3--3-----------------2--
G|--2/4-2--0--1--2--2/4-2--0--1--2--------------------2--2-------------------------------2--2-----------------2--
D|---------0--2--2---------0--2--2-----------2--11-9--5--4--0h2-----2-----------2--4--2--5--4-----------------2--
A|---------------0---------------0--2--4--2--0--------x--x-------2-----2--4--2--0--0--0--x--x--------------------
E|---------------x---------------x--0--0--0-----------x--x-------------0--0--0-----------x--x--------------------

Stave 4:

E|---------------------------------------------------------------------------------------
B|---------------------------------------------------------------------------------------
G|---------------------------------------------------------------------------------------
D|--0h2p0-----2--------------2--4--2--4--4--6--4--6--4--6--4--6--------------2--4--2--4--
A|---------2-----2--4--2--4--0--0--0--0--2--2--2--2--2--2--2--2--2--4--2--4--0--0--0--0--
E|---------------0--0--0--0--------------------------------------0--0--0--0--------------

Stave 5:

E|--x--x----------------2/4-2--------x--2/4-2--------x--2/4-2--------x-------
B|--3--3-----------------------------2---------------2---------------2--5\3--
G|--2--2----------------2-4\2--0--1--2--2-4\2--0--1--2--2-4\2--0--1--2-------
D|--5--4--0h2--0-----2---------0--2--2---------0--2--2---------0--2--2--5-4--
A|--x--x----------2------------------0---------------0---------------0----0--
E|--x--x---------------------------------------------------------------------

http://www.guitartabcreator.com
Guitar Tab Creator is intended to store guitar tab created through the tool. It currently does not support in-line text editing. Any text you place in here will be lost. If you need to comment on your tab, please use the "Tab Notes" section located below.