Sound will begin in 5 seconds

Chevrolet Pt 1

01234567891011121314151617181920212223
E
B
G
D
A
E
B
0 1 2 3 4 5 6 7 8 9 10 11 12 13 14 15 16 17 18 19 20 21 22 23
Song Science #1: How Pros Use 6 Chords to Write Hit Songs
(/) Slide Up  (\) Slide Down  (h) Hammer On  (p) Pull Off  (b) Bend (r) Release (v) Vibrato

Stave 1:

E|--12--10-----------------x--12--10-----------------x--2-4\2--------x--2-4\2--------x--
B|----------12--10---------2----------12--10---------2---------------2---------------2--
G|------------------12--9--2------------------12--9--2--2/4-2--0--1--2--2/4-2--0--1--2--
D|-------------------------2-------------------------2---------0--2--2---------0--2--2--
A|--------------------------------------------------------------------------------------
E|-------------------------x-------------------------x---------------x------------------

Stave 2:

E|--------------------x--x---------------------------------x--x---------------2-4\2--------x--
B|--------------------3--3---------------------------------3--3-------------------------------
G|--------------------2--2---------------------------------2--2---------------2/4-2--0--1--2--
D|-----------2--4--2--5--4--0h2p0-----2--------x--2--4--2--5--4--0h2p0-----2---------0--2--2--
A|--2--4--2--0--0--0--x--x---------2-----2--4--0--0--0--0--x--x---------2------------------2--
E|--0--0--0-----------x--x---------------0--0--0-----------x--x----------------------------x--

Stave 3:

E|--------------------x--x---------------------------------x--x---------------2-4\2--------x--
B|--------------------3--3---------------------------------3--3----------------------------2--
G|--------------------2--2---------------------------------2--2---------------2/4-2--0--1--2--
D|-----------2--4--2--5--4--0h2p0-----2-----------2--4--2--5--4--0h2p0-----2---------0--2--2--
A|--2--4--2--0--0--0---------------2-----2--4--2--0--0--0---------------2---------------------
E|--0--0--0------------------------------0--0--0----------------------------------------------

Stave 4:

E|--------------------------------------------------------------------------x--x---------------
B|--------------------------------------------------------------------------3--3---------------
G|--------------------------------------------------------------------------2--2---------------
D|--------------2--4--2--4--4--6--4--6--4--6--4--6--------------2--4--2--4--5--4--0h2p0-----2--
A|--2--4--2--4--0--0--0--0--2--2--2--2--2--2--2--2--2--4--2--4--0--0--0--0---------------2-----
E|--0--0--0--0--------------------------------------0--0--0--0---------------------------------

http://www.guitartabcreator.com
Guitar Tab Creator is intended to store guitar tab created through the tool. It currently does not support in-line text editing. Any text you place in here will be lost. If you need to comment on your tab, please use the "Tab Notes" section located below.