Game of thrones

01234567891011121314151617181920212223
E
B
G
D
A
E
B
0 1 2 3 4 5 6 7 8 9 10 11 12 13 14 15 16 17 18 19 20 21 22 23
(/) Slide Up  (\) Slide Down  (h) Hammer On  (p) Pull Off  (b) Bend (r) Release (v) Vibrato

Stave 1:

E|-0-------0-------|-0-------0-------|-0-------0-------|-0-------0-------|-0-----------|-----0---------|-----------------|---------------|---|-
B|-----1-3-----1-3-|-----1-3-----2-3-|-----2-3-----2-3-|-----2-3-----2-3-|-------------|-1-3-------1-3-|-0-------0-------|-0-------0-----|---|-
G|---2-------2-----|---2-------2-----|---2-------2-----|---2-------2-----|-------2-----|---------2-----|-----0-2-----0-2-|-----0-2-----0-|---|-
D|-----------------|-----------------|-----------------|-----------------|---2---------|---------------|---2-------2-----|---2-------2---|---|-
A|-0---------------|-----------------|-0---------------|-----------------|-0-----------|-0-------------|-----------------|---------------|---|-
E|-----------------|-----------------|-----------------|-----------------|-------------|---------------|-0---------------|---------------|---|-

Stave 2:

E|-----------------|-----------------|-------------------|---------------|-0-----------|---------|-|-|-----
B|-3---------------|-1-0-3-----------|-1-0---------------|---------------|-------------|---------|-|-|-----
G|-----0-----------|-----------0-----|-----2---0-2-----0-|-2-----0-2-----|-------2-----|---------|-|-|-----
D|---0-------------|-----------------|-0-----3-----0-3---|---0-3-----0-3-|---2---------|---------|-|-|-----
A|-----------------|-----------------|-------------------|---------------|-0-----------|---------|-|-|-----
E|-3---------------|-3---------------|-------------------|---------------|-------------|---------|-|-|-----

							http://www.guitartabcreator.com
Chords

Instruments
{"strings":[[[0,"_","_","_",0,"_","_","_","|",0,"_","_","_",0,"_","_","_","|",0,"_","_","_",0,"_","_","_","|",0,"_","_","_",0,"_","_","_","|",0,"_","_","_","_","_","|","_","_",0,"_","_","_","_","|","_","_","_","_","_","_","_","_","|","_","_","_","_","_","_","_","|","_","|"],[".","_",1,3,"_","_",1,3,"|","_","_",1,3,"_","_",2,3,"|","_","_",2,3,"_","_",2,3,"|","_","_",2,3,"_","_",2,3,"|","_","_","_","_","_","_","|",1,3,"_","_","_",1,3,"|",0,"_","_","_",0,"_","_","_","|",0,"_","_","_",0,"_","_","|","_","|"],[".",2,"_","_","_",2,"_","_","|","_",2,"_","_","_",2,"_","_","|","_",2,"_","_","_",2,"_","_","|","_",2,"_","_","_",2,"_","_","|","_","_","_",2,"_","_","|","_","_","_","_",2,"_","_","|","_","_",0,2,"_","_",0,2,"|","_","_",0,2,"_","_",0,"|","_","|"],[".","_","_","_","_","_","_","_","|","_","_","_","_","_","_","_","_","|","_","_","_","_","_","_","_","_","|","_","_","_","_","_","_","_","_","|","_",2,"_","_","_","_","|","_","_","_","_","_","_","_","|","_",2,"_","_","_",2,"_","_","|","_",2,"_","_","_",2,"_","|","_","|"],[0,"_","_","_","_","_","_","_","|","_","_","_","_","_","_","_","_","|",0,"_","_","_","_","_","_","_","|","_","_","_","_","_","_","_","_","|",0,"_","_","_","_","_","|",0,"_","_","_","_","_","_","|","_","_","_","_","_","_","_","_","|","_","_","_","_","_","_","_","|","_","|"],[".","_","_","_","_","_","_","_","|","_","_","_","_","_","_","_","_","|","_","_","_","_","_","_","_","_","|","_","_","_","_","_","_","_","_","|","_","_","_","_","_","_","|","_","_","_","_","_","_","_","|",0,"_","_","_","_","_","_","_","|","_","_","_","_","_","_","_","|","_","|"]],[[".","_","_","_","_","_","_","_","|","_","_","_","_","_","_","_","_","|","_","_","_","_","_","_","_","_","_","|","_","_","_","_","_","_","_","|",0,"_","_","_","_","_","|",null,null,null,null,null,null,null,null,null,null,null,null,null,null,null,null,null,null,null,null,null,null,null,null,null,null,null,"_","_","_","_","|","|","|","_","_"],[3,"_","_","_","_","_","_","_","|",1,0,3,"_","_","_","_","_","|",1,0,"_","_","_","_","_","_","_","|","_","_","_","_","_","_","_","|","_","_","_","_","_","_","|",null,null,null,null,null,null,null,null,null,null,null,null,null,null,null,null,null,null,null,null,null,null,null,null,null,null,null,"_","_","_","_","|","|","|","_","_"],[".","_",0,"_","_","_","_","_","|","_","_","_","_","_",0,"_","_","|","_","_",2,"_",0,2,"_","_",0,"|",2,"_","_",0,2,"_","_","|","_","_","_",2,"_","_","|",null,null,null,null,null,null,null,null,null,null,null,null,null,null,null,null,null,null,null,null,null,null,null,null,null,null,null,"_","_","_","_","|","|","|","_","_"],[".",0,"_","_","_","_","_","_","|","_","_","_","_","_","_","_","_","|",0,"_","_",3,"_","_",0,3,"_","|","_",0,3,"_","_",0,3,"|","_",2,"_","_","_","_","|",null,null,null,null,null,null,null,null,null,null,null,null,null,null,null,null,null,null,null,null,null,null,null,null,null,null,null,"_","_","_","_","|","|","|","_","_"],[".","_","_","_","_","_","_","_","|","_","_","_","_","_","_","_","_","|","_","_","_","_","_","_","_","_","_","|","_","_","_","_","_","_","_","|",0,"_","_","_","_","_","|",null,null,null,null,null,null,null,null,null,null,null,null,null,null,null,null,null,null,null,null,null,null,null,null,null,null,null,"_","_","_","_","|","|","|","_","_"],[3,"_","_","_","_","_","_","_","|",3,"_","_","_","_","_","_","_","|","_","_","_","_","_","_","_","_","_","|","_","_","_","_","_","_","_","|","_","_","_","_","_","_","|",null,null,null,null,null,null,null,null,null,null,null,null,null,null,null,null,null,null,null,null,null,null,null,null,null,null,null,"_","_","_","_","|","|","|","_","_"]]],"numberofstrings":6,"notes":["E","B","G","D","A","E","B"],"capo":0,"stringnotes":["E4","B3","G3","D3","A2","E2"],"comments":["Stave 1:","Stave 2:"],"timing":[["W","W","W","W","W","W","W","W",null,"W","W",null,null,null,"W","W","W","W","W","W","W","W","W","W","W","W","W","W",null,null,null,null,null,null,"W","W","W","W","W","W","W","W",null,"W","W","W","W","W","W","W","W","W","W","W","W","W","W","W","W","W","W",null,null,null,null,"W","W","W","W",null,"W"],["W","W","W","W","W","W","W","W",null,"W","W","W","W","W","W","W","W",null,"W","W","W","W","W","W","W","W","W","W","W","W","W","W","W","W","W","W","W","W","W","W","W","W",null,null,null,null,null,null,null,null,null,null,null,null,null,null,null,null,null,null,null,null,null,null,null,null,null,null,null,null,"W","W","W","W",null,null,null,"W","W","W"]],"timingvisible":false,"tabcounter":79,"stave":1,"totalstaves":2,"instrument":"6guitar","selectedtuning":"6_standard","version":"13"}

Member for

1 month 1 week
Submitted by brataman on Thu, 2022-05-19 10:30