Sound will begin in 5 seconds

Rock Intro

01234567891011121314151617181920212223
E
B
G
D
A
E
B
0 1 2 3 4 5 6 7 8 9 10 11 12 13 14 15 16 17 18 19 20 21 22 23
Song Science #1: How Pros Use 6 Chords to Write Hit Songs
(/) Slide Up  (\) Slide Down  (h) Hammer On  (p) Pull Off  (b) Bend (r) Release (v) Vibrato

Stave 1:

D|--0-----------0-----------0-----------0-----------0--------------------0--------------------
A|-----------------------6-----------------------6-----------------6--5-----------------6-----
D|-----7--6--5-----7--5--------7--6--5-----7--5--------7-----6--5-----------7-----6--5-----6--
G|--------------------------------------------------------5--------------------5--------------
A|--------------------------------------------------------------------------------------------
D|--------------------------------------------------------------------------------------------

Stave 2:

D|--9------------------------7------------------------5------------------------4------------------------
A|------------------------------------------------------------------------------------------------------
D|----------------12--11--9----------------12--11--9----------------12--11--9-----9--11--12-----11------
G|-----12--11--9----------------12--11--9----------------12--11--9---------------------------9------11--
A|------------------------------------------------------------------------------------------------------
D|------------------------------------------------------------------------------------------------------

Stave 3:

D|--9------------------------7------------------------5------------------------4------------------------
A|------------------------------------------------------------------------------------------------------
D|------------------------------------------------------------------------------------------------------
G|------------------------------------------------------------------------------------------------------
A|----------------12--11--9----------------12--11--9----------------12--11--9-----9--11--12-----11------
D|-----12--11--9----------------12--11--9----------------12--11--9---------------------------9------11--

http://www.guitartabcreator.com
Guitar Tab Creator is intended to store guitar tab created through the tool. It currently does not support in-line text editing. Any text you place in here will be lost. If you need to comment on your tab, please use the "Tab Notes" section located below.