Sound will begin in 5 seconds

DGDGBD

Chords
01234567891011121314151617181920212223
E
B
G
D
A
E
B
0 1 2 3 4 5 6 7 8 9 10 11 12 13 14 15 16 17 18 19 20 21 22 23
Song Science #1: How Pros Use 6 Chords to Write Hit Songs
(/) Slide Up  (\) Slide Down  (h) Hammer On  (p) Pull Off  (b) Bend (r) Release (v) Vibrato

Stave 1:

E|-----------|------|-----------|------
B|-----------|------|-----------|------
G|--7--------|------|--7--7--7--|--/7--
D|--------8--|--r3--|-----------|---8--
A|-----------|------|-----------|---8--
E|--6--6-----|------|--6--6--6--|---6--

Stave 2:

E|-----------|--------------|--------------------------|------
B|--8--------|--------8-----|--8--8--------------8-----|---8--
G|--------7--|-----------7--|-----------7-----------7--|--/7--
D|-----------|-----8--------|-----------------8--------|---8--
A|--8--8-----|--8-----------|--8--8--8-----8-----------|---8--
E|-----------|--------------|--------------------------|------

Stave 3:

E|-----------|--------------|--------|--------------------------------|------
B|--1--------|--------1-----|--1--1--|--------1--------------1--------|---1--
G|--------2--|-----------2--|--------|--------------2-----------2-----|---2--
D|-----------|-----3--------|--------|-----3--------------3--------3--|--/3--
A|--3--3-----|--3-----------|--3--3--|--3--------3-----3--------------|---3--
E|-----------|--------------|--------|--------------------------------|------

Stave 4:

E|--------------------|--------------|--------------------|--------------|------
B|--------------------|--------------|--------------------|--------------|------
G|--------------2-----|--------2-----|--------------3-----|--------3-----|---2--
D|-----------3-----3--|-----3-----3--|-----------3-----3--|-----3-----3--|--/3--
A|--------3-----------|--3-----------|--------3-----------|--3-----------|---3--
E|--0--1--------------|--------------|--0--1--------------|--------------|---1--

Stave 5:

E|--------------------|--------------------|--------------------------
B|--------------------|--------------------|--------------------------
G|--------------------|--------------------|--------------------------
D|--------3--------3--|-----5--------4-----|--------3--------3-----3--
A|-----3--------3-----|--------5--------4--|-----3--------3-----3-----
E|--1--------1--------|--3--------2--------|--1--------1--------------

Stave 6:

E|-----------|-----------------------------|-----------------------|------
B|-----------|-----------------------------|-----------------------|------
G|--7--------|--7--7--7--------------7-----|-----------------------|------
D|--------8--|--------------8-----------8--|--7--------------7-----|------
A|-----------|--------------------8--------|--------7-----7-----7--|--r2--
E|--6--6-----|--6--6--6--6-----6-----------|--5--5-----5-----------|------

Stave 7:

E|--------------|------|--------------|------|-----------------------|--
B|--------------|------|--------------|------|-----------------------|--
G|--------7-----|------|--------------|------|-----7-----7-----------|--
D|-----------8--|--r2--|--------7-----|------|-----8-----8-----7-----|--
A|-----8--------|------|-----7-----7--|--r2--|-----8-----8-----7-----|--
E|--6-----------|------|--5-----------|------|--6-----6-----5--5--5--|--

Stave 8:

E|-----------|------|----------------------
B|-----------|------|----------------------
G|-----------|------|----------------------
D|-----4--4--|--r2--|------8---------7-----
A|-----4-----|------|------8---8-----7--7--
E|--6--6-----|------|--10--10-----9--9-----

http://www.guitartabcreator.com
Guitar Tab Creator is intended to store guitar tab created through the tool. It currently does not support in-line text editing. Any text you place in here will be lost. If you need to comment on your tab, please use the "Tab Notes" section located below.