Sound will begin in 5 seconds

John Mayer | The Long and Winding Road

01234567891011121314151617181920212223
E
B
G
D
A
E
B
0 1 2 3 4 5 6 7 8 9 10 11 12 13 14 15 16 17 18 19 20 21 22 23
Song Science #1: How Pros Use 6 Chords to Write Hit Songs
(/) Slide Up  (\) Slide Down  (h) Hammer On  (p) Pull Off  (b) Bend (r) Release (v) Vibrato

Stave 1:

E|---------------------x--x--
B|--3h4--3-------------4--4--
G|----------3-----3/5--5--5--
D|-------------5-------6--6--
A|---------------------x--x--
E|---------------------6--6--

Stave 2:

E|---------------------------------------------
B|---------------------------------------------
G|--3/5\3/5-----3v----5b6r5-------3------------
D|-----------5---------------6\5-----3h4p3-----
A|------------------------------------------6--
E|---------------------------------------------

Stave 3:

E|---------------------------------------------------------
B|-----3----h4---------------------------------------------
G|--5-----------3-----3v-----------3v--3h5--3--------------
D|-----------------5------6--6--6--------------5\3--1--1v--
A|---------------------------------------------------------
E|---------------------------------------------------------

Stave 4:

E|-------------------------------------------
B|-----3--4---------------------3--3h4--3h4--
G|--5--------3-----5v--5--5--5---------------
D|--------------5----------------------------
A|-------------------------------------------
E|-------------------------------------------

Stave 5:

E|---------------------x--x--
B|--3h4--3-------------4--4--
G|----------3-----3/5--5--5--
D|-------------5-------6--6--
A|---------------------x--x--
E|---------------------6--6--

Stave 6:

E|------------------------------------------------------
B|------------------------------------------------------
G|--3h5--3h5/7\5--5h6p5r3-----3v--5b6b8r5---------------
D|-------------------------6---------------6--5---------
A|-----------------------------------------------6\1/3--
E|------------------------------------------------------

http://www.guitartabcreator.com
Guitar Tab Creator is intended to store guitar tab created through the tool. It currently does not support in-line text editing. Any text you place in here will be lost. If you need to comment on your tab, please use the "Tab Notes" section located below.