Sound will begin in 5 seconds

Verse 1 278

01234567891011121314151617181920212223
E
B
G
D
A
E
B
0 1 2 3 4 5 6 7 8 9 10 11 12 13 14 15 16 17 18 19 20 21 22 23
(/) Slide Up  (\) Slide Down  (h) Hammer On  (p) Pull Off  (b) Bend (r) Release (v) Vibrato

Hino 278 verso 1

E|-----------------------------
B|-----------------------------
G|--5--6--6--5--1--1--3--3--5--
D|-----------------------------
A|-----------------------------
E|-----------------------------

Éramos mortos nas obras más;

E|-----------------------------
B|-----------------------------
G|--5--6--6--5--1--3--5--3--1--
D|-----------------------------
A|-----------------------------
E|-----------------------------

Jamais tivemos divina paz

E|--------------------------------------
B|--------------------------------------
G|--6--6--6--6--5--5--8--3--6--6--5--5--
D|--------------------------------------
A|--------------------------------------
E|--------------------------------------

Glória ao bom Jesus, já temos Sua luz:

E|--------------------------------
B|--------------------------------
G|--1--1--1--1--3--5--5--5--3--1--
D|--------------------------------
A|--------------------------------
E|--------------------------------

D'Ele vos vem poder para vencer

E|--
B|--
G|--
D|--
A|--
E|--

							http://www.guitartabcreator.com
Note:
Guitar Tab Creator is intended to store guitar tab created through the tool. It currently does not support in-line text editing. Any text you place in here will be lost. If you need to comment on your tab, please use the "Tab Notes" section located below.