Sound will begin in 5 seconds

Drop C# Melodeath Bass

01234567891011121314151617181920212223
E
B
G
D
A
E
B
0 1 2 3 4 5 6 7 8 9 10 11 12 13 14 15 16 17 18 19 20 21 22 23
Song Science #1: How Pros Use 6 Chords to Write Hit Songs
(/) Slide Up  (\) Slide Down  (h) Hammer On  (p) Pull Off  (b) Bend (r) Release (v) Vibrato

Stave 1:

Gb|-----------------
Db|-----------------
Ab|-----------------
Db|--0-----------0--

Stave 2:

Gb|--------------------------------------5-----------
Db|--0--5--7--8--0--5--7--8--0--5--7--8-----8--7--5--
Ab|--------------------------------------------------
Db|--------------------------------------------------

Stave 3:

Gb|--------------------------------------5-----------
Db|--0--5--7--8--0--5--7--8--0--5--7--8-----7--8--5--
Ab|--------------------------------------------------
Db|--------------------------------------------------

Stave 4:

Gb|--------------------------------------7-----
Db|--0--5--7--8--0--5--7--8--0--5--7--8-----7--
Ab|--------------------------------------------
Db|--------------------------------------------

Stave 5:

Gb|--------2-----------------3-----------------------------2--------4--------2---------------------
Db|--0--3-----0--2-----0--2-----0--3--0--2--0-----0--0--3-----0--3-----0--3-----0--3--3v--3--2--3--
Ab|-----------------2--------------------------4---------------------------------------------------
Db|------------------------------------------------------------------------------------------------

http://www.guitartabcreator.com
Guitar Tab Creator is intended to store guitar tab created through the tool. It currently does not support in-line text editing. Any text you place in here will be lost. If you need to comment on your tab, please use the "Tab Notes" section located below.