Sound will begin in 5 seconds

Drop C# Melodeath

Chords
01234567891011121314151617181920212223
E
B
G
D
A
E
B
0 1 2 3 4 5 6 7 8 9 10 11 12 13 14 15 16 17 18 19 20 21 22 23
Song Science #1: How Pros Use 6 Chords to Write Hit Songs
(/) Slide Up  (\) Slide Down  (h) Hammer On  (p) Pull Off  (b) Bend (r) Release (v) Vibrato

Stave 1:

E|--------------------------
B|--------------------------
G|--------------------------
D|--0--0--5--5--7--7--8--8--
A|--------------------------
E|--------------------------

Stave 2:

E|--------------------------
B|--------------------------
G|--5--5--------------------
D|--------8--8--7--7--5--5--
A|--------------------------
E|--------------------------

Stave 3:

E|--------------------------
B|--------------------------
G|--7--7--7--7--------------
D|--------------7--7--7--7--
A|--------------------------
E|--------------------------

Stave 4:

E|--------------------------------------------------
B|--------------------------------------------------
G|--------------------------------------------------
D|--------3-----------------5--------3--2-----------
A|-----------------0-----------------------5--4--5--
E|--0--2-----0--2-----0--2-----0--2-----------------

Stave 5:

E|---------------------------------------------------
B|---------------------------------------------------
G|---------------------------------------------------
D|--------3--------5--------3--------2v--------------
A|---------------------------------------------------
E|--0--2-----0--2-----0--2-----0--2------0--0--2--0--

Stave 6:

E|-----------
B|-----------
G|-----------
D|-----------
A|--0--2--3--
E|--0--2--3--

Stave 7:

E|--------------
B|--------------
G|--------------
D|--------------
A|--0--2--------
E|--0--2--3-----

Stave 8:

E|-----------------
B|-----------------
G|-----------------
D|-----------------
A|--0--3--0--2--3--
E|--0--3--0--2--3--

Stave 9:

E|--------------------------
B|--------------------------
G|--------------------------
D|-----8--4--5--------------
A|--5-----------7--5--4--5--
E|--------------------------

Stave 10:

E|--
B|--
G|--
D|--
A|--
E|--

http://www.guitartabcreator.com
Guitar Tab Creator is intended to store guitar tab created through the tool. It currently does not support in-line text editing. Any text you place in here will be lost. If you need to comment on your tab, please use the "Tab Notes" section located below.