Sound will begin in 5 seconds

"Rain Song Duo" on Youtube

Chords
01234567891011121314151617181920212223
E
B
G
D
A
E
B
0 1 2 3 4 5 6 7 8 9 10 11 12 13 14 15 16 17 18 19 20 21 22 23
Song Science #1: How Pros Use 6 Chords to Write Hit Songs
(/) Slide Up  (\) Slide Down  (h) Hammer On  (p) Pull Off  (b) Bend (r) Release (v) Vibrato

Stave 1:

E|--7--7--5--7--
B|--7--7--5--7--
G|--9--8--6--8--
D|--9--9--7--9--
A|--7--9--7--9--
E|-----7--5--7--

Stave 2:

E|--5--4--2--
B|--5--4--2--
G|--6--5--3--
D|--7--6--4--
A|--7--6--4--
E|--5--4--2--

Stave 3:

E|-------
B|-------
G|--1h2--
D|--2----
A|--2----
E|-------

Stave 4:

E|--5--2--
B|--5--2--
G|--6--3--
D|--7--4--
A|--7--4--
E|--5--2--

Stave 5:

E|--------5--7--
B|--------5--7--
G|--9--8--6--8--
D|--9--9--7--9--
A|--7--7--7--9--
E|--------5--7--

Stave 6:

E|--5--7--
B|--5--7--
G|--6--8--
D|--7--9--
A|--7--9--
E|--5--7--

http://www.guitartabcreator.com
Guitar Tab Creator is intended to store guitar tab created through the tool. It currently does not support in-line text editing. Any text you place in here will be lost. If you need to comment on your tab, please use the "Tab Notes" section located below.