Sound will begin in 5 seconds

Unstoppable God (Key of B) (Original Key)

Chords
01234567891011121314151617181920212223
E
B
G
D
A
E
B
0 1 2 3 4 5 6 7 8 9 10 11 12 13 14 15 16 17 18 19 20 21 22 23
Song Science #1: How Pros Use 6 Chords to Write Hit Songs
(/) Slide Up  (\) Slide Down  (h) Hammer On  (p) Pull Off  (b) Bend (r) Release (v) Vibrato

Stave 1:

E|-------------|--
B|-------------|--
G|-------------|--
D|--11--13--6--|--
A|--9---11--7--|--
E|-------------|--

Stave 2:

E|---------------------------------------------------------------------------------------
B|---------------------------------------------------------------------------------------
G|--16--15-------------16--15-----------------16--15-------------16--15------------------
D|----------16-----------------16---------------------16-----------------16--------------
A|--------------18-----------------18--16-----------------18-----------------18--16--14--
E|---------------------------------------------------------------------------------------

Stave 3:

E|--------------------------------------------------------------------------------------
B|--12--11-------------12--11-----------------12--11-------------12--11-----------------
G|----------11-----------------11---------------------11-----------------11-------------
D|--------------13-----------------13--11-----------------13-----------------13--11--9--
A|--------------------------------------------------------------------------------------
E|--------------------------------------------------------------------------------------

Stave 4:

E|--------------------------------------------------------|--
B|--7-----4--------------4--7--7--4--7--4--4--7--4--------|--
G|--------------6--4--6-----------------------------6--4--|--
D|--------------------------------------------------------|--
A|--------------------------------------------------------|--
E|--------------------------------------------------------|--

Stave 5:

E|--18b19v-----16v----------------18b19v-----16v-----14v--
B|---------------------19---------------------------------
G|--------------------------------------------------------
D|-------------------------18-----------------------------
A|--------------------------------------------------------
E|--------------------------------------------------------

Stave 6:

E|------------------------|--
B|------------------------|--
G|--8--12--4--3--5--8--4--|--
D|--9--13--6--4--6--9--6--|--
A|--x--x---4--x--x--x--4--|--
E|--7--11--0--2--4--7--0--|--

Stave 7:

E|--4--4--4--6--4--4--4--|--
B|--4--4--5--7--4--4--5--|--
G|--4--6--4--6--4--6--4--|--
D|-----------------------|--
A|-----------------------|--
E|-----------------------|--

http://www.guitartabcreator.com
Guitar Tab Creator is intended to store guitar tab created through the tool. It currently does not support in-line text editing. Any text you place in here will be lost. If you need to comment on your tab, please use the "Tab Notes" section located below.