Sound will begin in 5 seconds

I Surrender (Rhythm)

01234567891011121314151617181920212223
E
B
G
D
A
E
B
0 1 2 3 4 5 6 7 8 9 10 11 12 13 14 15 16 17 18 19 20 21 22 23
Song Science #1: How Pros Use 6 Chords to Write Hit Songs
(/) Slide Up  (\) Slide Down  (h) Hammer On  (p) Pull Off  (b) Bend (r) Release (v) Vibrato

Stave 1:

E|--------------|--------------|--------------|-----------
B|-----6-----6--|-----6-----6--|-----6-----6--|--5--3-----
G|--2-----2-----|--2-----2-----|--2-----2-----|--------5--
D|--------------|--------------|--------------|-----------
A|--------------|--------------|--------------|-----------
E|--------------|--------------|--------------|-----------

Stave 2:

E|--------------|--------------|--------------|-----------
B|-----6-----6--|-----6-----6--|-----6-----6--|--5--3-----
G|--------------|--------------|--------------|-----------
D|--5-----5-----|--5-----5-----|--5-----5-----|--------5--
A|--------------|--------------|--------------|-----------
E|--------------|--------------|--------------|-----------

Stave 3:

E|--------------|--------------|--------------|-----------
B|-----6-----6--|-----6-----6--|-----6-----6--|--5--3-----
G|--3-----3-----|--3-----3-----|--3-----3-----|--------5--
D|--------------|--------------|--------------|-----------
A|--------------|--------------|--------------|-----------
E|--------------|--------------|--------------|-----------

Stave 4:

E|-----------|-----------|-----------|-----------|--
B|-----------|-----------|-----------|-----------|--
G|--2--2--2--|--2--2--2--|--2--2--2--|--5--7--7--|--
D|-----------|-----------|-----------|-----------|--
A|-----------|-----------|-----------|-----------|--
E|-----------|-----------|-----------|-----------|--

Stave 5:

E|-----------|-----------|-----------|-----------
B|-----------|-----------|-----------|-----------
G|-----------|-----------|-----------|--5--7--7--
D|--5--5--5--|--5--5--5--|--5--5--5--|-----------
A|-----------|-----------|-----------|-----------
E|-----------|-----------|-----------|-----------

Stave 6:

E|-----------|-----------|-----------|-----------
B|-----------|-----------|-----------|-----------
G|-----------|-----------|-----------|-----------
D|--3--3--3--|--3--3--3--|--3--3--3--|--3--3--3--
A|-----------|-----------|-----------|-----------
E|-----------|-----------|-----------|-----------

Stave 7:

E|----------|-----------|-----------|-----------|--------------
B|----------|-----------|-----------|-----------|--------------
G|--7--7--7--|--7--7--7--|--2--2--2--|--2--2--2--9--9--9--3--9--
D|----------|-----------|-----------|-----------|--------------
A|--5--5--5--|--5--5--5--|--3--3--3--|--3--3--3--7--7--7--3--7--
E|----------|-----------|-----------|-----------|--------------

Stave 8:

E|----------|-----------|--|-----------|-----------|--
B|----------|-----------|--|-----------|-----------|--
G|--9--9--9--|--9--9--9--|--|--9--9--9--|--9--9--9--|--
D|----------|-----------|--|-----------|-----------|--
A|--7--7--7--|--7--7--7--|--|--7--7--7--|--7--7--7--|--
E|----------|-----------|--|-----------|-----------|--

Stave 9:

E|----------|-----------|--------------|--------------
B|----------|-----------|--------------|--------------
G|--3--3--3--|--3--3--3--|--10--10--10--|--10--10--10--
D|----------|-----------|--------------|--------------
A|--3--3--3--|--3--3--3--|--8---8---8---|--8---8---8---
E|----------|-----------|--------------|--------------

http://www.guitartabcreator.com
Guitar Tab Creator is intended to store guitar tab created through the tool. It currently does not support in-line text editing. Any text you place in here will be lost. If you need to comment on your tab, please use the "Tab Notes" section located below.