Sound will begin in 5 seconds

This Is Amazing Grace (Phil Wickham) (D) up 2 whole steps

01234567891011121314151617181920212223
E
B
G
D
A
E
B
0 1 2 3 4 5 6 7 8 9 10 11 12 13 14 15 16 17 18 19 20 21 22 23
Song Science #1: How Pros Use 6 Chords to Write Hit Songs
(/) Slide Up  (\) Slide Down  (h) Hammer On  (p) Pull Off  (b) Bend (r) Release (v) Vibrato

Stave 1:

E|--------------------------------------5--7--------------------
B|--8--7--5--7-----7--5--7--------5--7--------------5--7--------
G|-----------------------------7-----------------7--------4--2--
D|--------------------------------------------------------------
A|--------------------------------------------------------------
E|--------------------------------------------------------------

Stave 2:

E|--10--10--10--5--2-----10--10--10--5--3-----10--10--10--9--7-----9--9--9--10--12--
B|----------------------------------------------------------------------------------
G|----------------------------------------------------------------------------------
D|----------------------------------------------------------------------------------
A|----------------------------------------------------------------------------------
E|----------------------------------------------------------------------------------

Stave 3:

E|---------------------------------------------
B|---------------------------------------------
G|---------------------------------------------
D|--12--12--12-------------12--12--12--14--16--
A|--------------14--12-------------------------
E|---------------------------------------------

Stave 4:

E|--------------|--------------|--------------|--------9--10--
B|--8--7--------|--8--7--------|--8--7--------|--8--7---------
G|-----------7--|-----------7--|-----------7--|---------------
D|--------9-----|--------9-----|--------9-----|---------------
A|--------------|--------------|--------------|---------------
E|--------------|--------------|--------------|---------------

Stave 5:

E|--------------|--------------|--------------|-----
B|--8--7--------|--8--7--------|--8--7--------|-----
G|-----------7--|-----------7--|-----------7--|--7--
D|--------9-----|--------9-----|--------9-----|-----
A|--------------|--------------|--------------|-----
E|--------------|--------------|--------------|-----

http://www.guitartabcreator.com
Guitar Tab Creator is intended to store guitar tab created through the tool. It currently does not support in-line text editing. Any text you place in here will be lost. If you need to comment on your tab, please use the "Tab Notes" section located below.