Sound will begin in 5 seconds

Anna - The Cribs

Chords
01234567891011121314151617181920212223
E
B
G
D
A
E
B
0 1 2 3 4 5 6 7 8 9 10 11 12 13 14 15 16 17 18 19 20 21 22 23
Song Science #1: How Pros Use 6 Chords to Write Hit Songs
(/) Slide Up  (\) Slide Down  (h) Hammer On  (p) Pull Off  (b) Bend (r) Release (v) Vibrato

Stave 1:

E|--------3-------------7--------
B|-----3-----3-------7-----7-----
G|--4-----------4/8-----------8--
D|-------------------------------
A|-------------------------------
E|-------------------------------

Stave 2:

E|-----------3-----------3-----------8----
B|-----3-----------3-----------8----------
G|--4-----4-----4-----4-----9-----9-----9\
D|----------------------------------------
A|----------------------------------------
E|----------------------------------------

Stave 3:

E|-----------3-----------3--------8--------------7--------
B|-----3-----------3-----------8-----8--------7-----7-----
G|--4-----4-----4-----4-----9-----------9--8-----------8--
D|--------------------------------------------------------
A|--------------------------------------------------------
E|--------------------------------------------------------

Stave 4:

E|-----3-----7-----3-----7-----3-----7-----7--8-----
B|--5-----5-----5-----5-----5-----5-----5--------7--
G|--------------------------------------------------
D|--------------------------------------------------
A|--------------------------------------------------
E|--------------------------------------------------

Stave 5:

E|-------5-----------5-----------5-----------5--------------
B|--7/8-----8-----8-----8-----8-----8-----8-----8--8--8--7--
G|-------------7-----------7-----------7--------------------
D|----------------------------------------------------------
A|----------------------------------------------------------
E|----------------------------------------------------------

Stave 6:

E|-----3-----7-----3-----7-----3-----7-----7--8-----
B|--5-----5-----5-----5-----5-----5-----5--------7--
G|--------------------------------------------------
D|--------------------------------------------------
A|--------------------------------------------------
E|--------------------------------------------------

Stave 7:

E|------------
B|------------
G|--12--4--7--
D|------------
A|--10--2--5--
E|------------

Stave 8:

E|-----------------------------------7-----7--7--8--2--
B|--------3--5--------------------8-----8--------------
G|-----4--------4--------------9-----------------------
D|--5--------------5--7--7--5--------------------------
A|-----------------------------------------------------
E|-----------------------------------------------------

Stave 9:

E|--------------------
B|--------------------
G|--10--7--9--14--15--
D|--------------------
A|--8---5--7--12--13--
E|--------------------

Stave 10:

E|------------------------------------------
B|------------------------------------------
G|--12--9--11--12--16--17--9--8--9--16--14--
D|------------------------------------------
A|--10--7--9---10--14--15--7--6--7--14--12--
E|------------------------------------------

Stave 11:

E|-------------------------------------
B|-------------------------------------
G|--7--9--12--16--17--9--9--9--16--14--
D|-------------------------------------
A|--5--7--10--14--15--7--6--7--14--12--
E|-------------------------------------

http://www.guitartabcreator.com
Guitar Tab Creator is intended to store guitar tab created through the tool. It currently does not support in-line text editing. Any text you place in here will be lost. If you need to comment on your tab, please use the "Tab Notes" section located below.