Sound will begin in 5 seconds

Robert Walter - Aquafresh

Chords
01234567891011121314151617181920212223
E
B
G
D
A
E
B
0 1 2 3 4 5 6 7 8 9 10 11 12 13 14 15 16 17 18 19 20 21 22 23
(/) Slide Up  (\) Slide Down  (h) Hammer On  (p) Pull Off  (b) Bend (r) Release (v) Vibrato

Stave 1:

E|-------------------------------------------------------------------------------
B|----------------------9--8-----------------------------------------------------
G|--7--10--7--10--7-----------10--7--10--7-----7--10--7--10--7---------8--8--10--
D|-----------------------------------------------------------------10------------
A|-------------------------------------------------------------------------------
E|-------------------------------------------------------------------------------

Stave 2:

E|----------------------------------------------------------------------------
B|--11--11--11--10-----------------------11--11--11--10-----------------------
G|---------------------8--8-----8--8------------------------10--8-------------
D|-----------------------------------------------------------------10--8------
A|------------------------------------------------------------------------11--
E|----------------------------------------------------------------------------

Stave 3:

E|--------------------------------------------------------------------------------------
B|---------11--------11--9-----------------11------------11-----11--9-------------------
G|--------------------------10-----8h9h10------------------------------10-----8--9--10--
D|--11/12-----------------------------------------11/12---------------------------------
A|--------------------------------------------------------------------------------------
E|--------------------------------------------------------------------------------------

Stave 4:

E|--------------------------8---11--10--
B|---------11--------11--9--8---13--11--
G|--------------------------9---13--11--
D|--11/12-------------------10--13--11--
A|--------------------------10--11--10--
E|--------------------------8-----------

http://www.guitartabcreator.com
Guitar Tab Creator is intended to store guitar tab created through the tool. It currently does not support in-line text editing. Any text you place in here will be lost. If you need to comment on your tab, please use the "Tab Notes" section located below.