Sound will begin in 5 seconds

When you see your god

Chords
01234567891011121314151617181920212223
E
B
G
D
A
E
B
0 1 2 3 4 5 6 7 8 9 10 11 12 13 14 15 16 17 18 19 20 21 22 23
Song Science #1: How Pros Use 6 Chords to Write Hit Songs
(/) Slide Up  (\) Slide Down  (h) Hammer On  (p) Pull Off  (b) Bend (r) Release (v) Vibrato

Stave 1:

Db|-----------------------------------------
Ab|-----------------------------------------
F |-----------------------------------------
C |-----------------3--2--------------------
G |-----------1--0--------4--1--------------
C |--0--2--3--------------------0--2--3--5--

Stave 2:

Db|--------------------------------------------------
Ab|--------------------------------------------------
F |--------------------------------------------------
C |-----------------3--2-----------------------------
G |-----------1--0--------4--1-----------------------
C |--0--2--3--------------------0--2--3--5--3--2--3--

Stave 3:

Db|--------------------------------------------------
Ab|--------------------------------------------------
F |-----------------5--4-----------------------------
C |-----------3--2--3--2--6--3-----------------------
G |--0--2--3--1--0--------4--1--0--2--3--5--3--2--3--
C |--0--2--3--------------------0--2--3--5--3--2--3--

Stave 4:

Db|-----------------------------------------------------------
Ab|-----------------------------------------------------------
F |-----------------------------------------------------------
C |-----------------------------------------------------------
G |--0--0--------2--2--------3--------------5--------3-----2--
C |--0--0--------2--2--------3--------------5--------3-----2--

Stave 5:

Db|---------------------------------------------------------------------------------------------------
Ab|---------------------------------------------------------------------------------------------------
F |---------------------------------------------------------------------------------------------------
C |--------------------------------------------------------------------------------------2h3p2--3--5--
G |--------5-----7-----8--7-----5-----7--3-----3--7--------5-----7-----8--7-----5-----3---------------
C |--0--0-----0-----0--------0-----0--------0--------0--0-----0-----0--------0-----0------------------

Stave 6:

Db|---------------------------------------------------------------------------------------------------
Ab|---------------------------------------------------------------------------------------------------
F |------------------------------------------------------------------------------------------------2--
C |--------------------------------------------------------------------------------------2h3p2--5-----
G |--------5-----7-----8--7-----5-----7--3-----3--7--------5-----7-----8--7-----5-----3---------------
C |--0--0-----0-----0--------0-----0--------0--------0--0-----0-----0--------0-----0------------------

Stave 7:

Db|------------------------------
Ab|------------------------------
F |--10--------9--------6-----7--
C |------------------------------
G |--8------0--7-----0--4-----5--
C |---------0--------0-----------

http://www.guitartabcreator.com
Guitar Tab Creator is intended to store guitar tab created through the tool. It currently does not support in-line text editing. Any text you place in here will be lost. If you need to comment on your tab, please use the "Tab Notes" section located below.