Sound will begin in 5 seconds

Stairway to Heaven Body

Chords
01234567891011121314151617181920212223
E
B
G
D
A
E
B
0 1 2 3 4 5 6 7 8 9 10 11 12 13 14 15 16 17 18 19 20 21 22 23
Song Science #1: How Pros Use 6 Chords to Write Hit Songs
(/) Slide Up  (\) Slide Down  (h) Hammer On  (p) Pull Off  (b) Bend (r) Release (v) Vibrato

Stave 1:

E|-----------5--7--------7--8--------8--|--2--------2--|--0--------------0-----------------|--|--
B|--------5--------5-----------5--------|-----3--------|-----1-----1--------1-----0--1--1--|--|--
G|-----5--------------5-----------5-----|--------2-----|--------2--------------2--0--2--2--|--|--
D|--7-----------6-----------5-----------|--4-----------|--3--------------------------------|--|--
A|--------------------------------------|--------------|--------------------------2--0--0--|--|--
E|--------------------------------------|--------------|-----------------------------------|--|--

Stave 2:

E|--------------------|--2--------2--|--0--------0-------------|--------------------|--3--------3--|--
B|-----------------1--|-----3--------|-----1--------1--0h1-----|--------1-----1--1--|-----0--------|--
G|--------------0-----|--------2-----|--------2-------------2--|-----------0--0-----|--------0-----|--
D|-----------2--------|--0-----------|--3----------------------|--------------2-----|--------------|--
A|--0--2--3-----------|--------------|-----------------0-------|--0--2--3-----------|--------------|--
E|--------------------|--------------|-------------------------|--------------------|--3-----------|--

Stave 3:

E|--3p2--2--3--
B|--3----0--3--
G|--2-------2--
D|--0-------0--
A|-------------
E|-------------

Stave 4:

E|-----------------0--|--2--------2--|--0-------------------|--------------------|--2--------2--0--0--0--
B|--------------------|-----3--------|-----1-----1--0h1-----|--------1--------1--|-----3--------1--1--1--
G|--------------0-----|--------2-----|--------2----------2--|-----------0--------|--------2-----2--2--2--
D|-----------2--------|--0-----------|--3-------------------|--------------2-----|--0-----------3--3--3--
A|--0--2--3-----------|--------------|--------------0-------|--0--2--3-----------|-----------------------
E|--------------------|--------------|----------------------|--------------------|-----------------------

Stave 5:

E|-----------5--7--------7--8--------8--|--2--------2--|--0-----0--------0-----------------
B|--------5--------5-----------5--------|-----3--------|-----1-----1--------1-----0--1--1--
G|-----5--------------5-----------5-----|--------2-----|-----------------------2--0--2--2--
D|--7-----------6-----------5-----------|--4-----------|--3--------------------------------
A|--------------------------------------|--------------|--------------------------2--0--0--
E|--------------------------------------|--------------|-----------------------------------

Stave 6:

E|------------------|-----------5--7-----------7--------|-----------8-----------|-----------2-----------
B|------------------|-----------------5-----5-----5-----|--------5-----5--------|--------3-----3--------
G|------------------|--------5-----------5-----------5--|-----5-----------5-----|-----2-----------2-----
D|------------------|-----7--------6--------------------|--5-----------------5--|--4-----------------4--
A|--0--5/8\7--7--0--|--0--------------------------------|-----------------------|-----------------------
E|------------------|-----------------------------------|-----------------------|-----------------------

Stave 7:

E|-----------0-----------------0--------------------------
B|--------1-----1-----------1-----1--------0--1--1-----3--
G|-----2-----------2-----2-----------2-----0--2--2-----0--
D|--3-----------------3-----------------3--------------0--
A|-----------------------------------------2--0--0-----2--
E|--------------------------------------------------------

http://www.guitartabcreator.com
Guitar Tab Creator is intended to store guitar tab created through the tool. It currently does not support in-line text editing. Any text you place in here will be lost. If you need to comment on your tab, please use the "Tab Notes" section located below.