Sound will begin in 5 seconds

Working title for now (cjhords)

Chords
01234567891011121314151617181920212223
E
B
G
D
A
E
B
0 1 2 3 4 5 6 7 8 9 10 11 12 13 14 15 16 17 18 19 20 21 22 23
(/) Slide Up  (\) Slide Down  (h) Hammer On  (p) Pull Off  (b) Bend (r) Release (v) Vibrato

Stave 1:

E|-----------------
B|--9--------5-----
G|-----8--6-----8--
D|--9--------6--6--
A|--7--9--7--4--4--
E|--0--7--5--------

Stave 2:

E|--------------
B|--------------
G|-----8--6--8--
D|--6--6-----6--
A|--7--7--7--4--
E|--0--0--5-----

Stave 3:

E|--0--0-------------
B|--0--12--------12--
G|--1--13--4--8--13--
D|--2--11--6-----11--
A|--2--0---7--9--0---
E|--0------0--7------

http://www.guitartabcreator.com
Guitar Tab Creator is intended to store guitar tab created through the tool. It currently does not support in-line text editing. Any text you place in here will be lost. If you need to comment on your tab, please use the "Tab Notes" section located below.