Sound will begin in 5 seconds

wet shorts // the obsessives

Chords
01234567891011121314151617181920212223
E
B
G
D
A
E
B
0 1 2 3 4 5 6 7 8 9 10 11 12 13 14 15 16 17 18 19 20 21 22 23
Song Science #1: How Pros Use 6 Chords to Write Hit Songs
(/) Slide Up  (\) Slide Down  (h) Hammer On  (p) Pull Off  (b) Bend (r) Release (v) Vibrato

Stave 1:

E|-----------------------0-----3-------------------------------0-----3--------
C|-----------------0-----------------2p0-----------------0-----------------2--
G|-----0-----2-------------------------------0-----2--------------------------
C|----------------------------------------------------------------------------
A|--------------0-------------------------------------0-----------------------
F|--0-----2-----------0-----0-----0-------0-----2-----------0-----0-----0-----

Stave 2:

E|-----0-----0--------0-----0--------0-----0--------0-----0--------0-----0--------0-----0-----0--0--0--
C|-----0-----0--------0-----0--------0-----0--------0-----0--------0-----0--------0-----0-----0--0--0--
G|-----0-----0--------0-----0--------0-----0--------0-----0--------0-----0--------0-----0-----0--0--0--
C|-----------------------------------------------------------------------------------------------------
A|-----------------------------------------------------------------------------------------------------
F|--4-----4--------7-----7--------0-----0--------4-----4--------7-----7--------0-----0--------4--7--0--

Stave 3:

E|-----0-----0--------0-----0-----0--
C|-----0-----0--------0-----0-----0--
G|-----0-----0--------0-----0-----0--
C|-----------------------------------
A|-----------------------------------
F|--4-----4--------7-----7--------0--

Stave 4:

E|--0--0--0--0--0--0--0--
C|--0--0--0--0--0--0--0--
G|--2--2--2--5--7--9--9--
C|--0--0--0--0--0--7--7--
A|--0--2--3--5--7--8--7--
F|-----------0--0--0--0--

Stave 5:

E|-----------------------0-----3--------------------------------0-----3--------
C|-----------------0-----------------2--0-----------------0-----------------2--
G|-----0-----2--------------------------------0-----2--------------------------
C|-----------------------------------------------------------------------------
A|--------------0--------------------------------------0-----------------------
F|--0-----2-----------0-----0-----0--------0-----2-----------0-----0-----0-----

Stave 6:

E|--0--0--0--0--0--0--0--
C|--0--0--0--0--0--0--0--
G|--2--2--2--5--7--9--9--
C|--0--0--0--0--0--7--7--
A|--0--2--3--5--7--8--7--
F|-----------0--0--0--0--

Stave 7:

E|--------------------------------------------------------------------
C|--------------------------------------------------------------------
G|--9--12--9--12-----------9--9--9-----------9--9--9--------9--9--12--
C|--9--12--9--12-----------9--9--9-----------9--9--9--------9--9--12--
A|--7--10--7--10--------------------------------------------------10--
F|--9--0---9--0---9--9--9-----------9--9--9-----------9--9--------0---

Stave 8:

E|----------------------------------------------------------
C|----------------------------------------------------------
G|-----------9--9--9-----------9--9--9--------9--9--12--12--
C|-----------9--9--9-----------9--9--9--------9--9--12--12--
A|--------------------------------------------------10--10--
F|--9--9--9-----------9--9--9-----------9--9--------0---12--

Stave 9:

E|---------------------
C|---------------------
G|--9--------------12--
C|--9--------------12--
A|-----------------10--
F|--9--------------12--

http://www.guitartabcreator.com
Guitar Tab Creator is intended to store guitar tab created through the tool. It currently does not support in-line text editing. Any text you place in here will be lost. If you need to comment on your tab, please use the "Tab Notes" section located below.